Song name
# A B C D E F G H I J K L M N O P Q R S T U V W X Y Z

Red Hot Chili Peppers - Wet Sand tab

SOLO WET SAND

e|---------------------19----19------------------------------------------------|
B|--19^--19^--19^--19^---19^----19^--19--19^--16--16--14h16p14--12h14-12-------|
G|-----------------------------------------------------------------------------|
D|-----------------------------------------------------------------------------|
A|-----------------------------------------------------------------------------|
E|-----------------------------------------------------------------------------|

e|-----------11------18^-14h16~---21^-21^-21^-21^-21^-21^-19-21-21^-21-19------|
B|--12-11h12-----12------------------------------------------------------------|
G|-----------------------------------------------------------------------------|
D|-----------------------------------------------------------------------------|
A|-----------------------------------------------------------------------------|
E|-----------------------------------------------------------------------------|

e|--19-19-18h19-21^-19-18h19-19-18h19p18-16--------18^--14h16--14-16-14------------|
B|-------------------------------------------19-16----------------------14/16~-----|
G|---------------------------------------------------------------------------------|
D|---------------------------------------------------------------------------------|
A|---------------------------------------------------------------------------------|
E|---------------------------------------------------------------------------------|


^ Full bend
h hammer
p pull off
/ slide
~ vibrato
Tap to rate this tab
# A B C D E F G H I J K L M N O P Q R S T U V W X Y Z