Song name
# A B C D E F G H I J K L M N O P Q R S T U V W X Y Z

Red Hot Chili Peppers - Love Rollercoaster tab

Song: Love Rollercoaster
Artist: Red Hot Chili Peppers
Tabbed by Kobrajugganut58(anthsesgarciarudy@yahoo.com)

Intro
E--8-8-666-5-5----555-5-666-8-8--|
B--8-8-666-5-5----555-5-666-8-8--|
G--9-9-777-6-6----666-6-777-9-9--|
D--------------------------------|
A--------------------------------|
E--------------------------------|


--888-8-666-5-5----555-5-666-8-8--|
--888-8-666-5-5----555-5-666-8-8--|
--999-9-777-6-6----666-6-777-9-9--|
----------------------------------|
----------------------------------|
----------------------------------|


--888-8-666-5-5----555-5-666-8-8--|
--888-8-666-5-5----555-5-666-8-8--|
--999-9-777-6-6----666-6-777-9-9--|
----------------------------------|
----------------------------------|
----------------------------------|


--888-8-666-5-5----555-5-666-8-8--|
--888-8-666-5-5----555-5-666-8-8--|
--999-9-777-6-6----666-6-777-9-9--|
----------------------------------|
----------------------------------|
----------------------------------|


--888-8-666-5-5----555-5-666-8-8--|
--888-8-666-5-5----555-5-666-8-8--|
--999-9-777-6-6----666-6-777-9-9--|
----------------------------------|
----------------------------------|
----------------------------------|


--888-8-666-5-5----555-5-666-8-8--|
--888-8-666-5-5----555-5-666-8-8--|
--999-9-777-6-6----666-6-777-9-9--|
----------------------------------|
----------------------------------|
----------------------------------|


--888-8-666-5-5----555-5-666-8-8--|
--888-8-666-5-5----555-5-666-8-8--|
--999-9-777-6-6----666-6-777-9-9--|
----------------------------------|
----------------------------------|
----------------------------------|


--888-8-666-5-5----555-5-666-8-8--|
--888-8-666-5-5----555-5-666-8-8--|
--999-9-777-6-6----666-6-777-9-9--|
----------------------------------|
----------------------------------|
----------------------------------|


Tap to rate this tab
# A B C D E F G H I J K L M N O P Q R S T U V W X Y Z