Guitaretab - guitar tabs
Song name
# A B C D E F G H I J K L M N O P Q R S T U V W X Y Z

Red Hot Chili Peppers - City Of Angels tab

-------------------------------------------------------------------------------
			     City Of Angels - Red Hot Chili Peppers
-------------------------------------------------------------------------------
Tabbed by: Santiago Verduzco
Email: sverduzco27@yahoo.com

Tuning: Standard Tuning 


Intro:

e|------------------------------------|--------------------------------|
B|--3-----------3---------------------|-2------------------------------|
G|---------2--------2-----------------|-------------3------------------|
D|------4-----4-----------------------|-------4--------4---4--2--0-----|
A|---5-----------------4--2--0--------|----4-----4------------------2--|
E|------------------------------4-----|-2------------------------------|
[ Tab from: http://www.guitaretab.com/r/red-hot-chili-peppers/189895.html ]
e|------------------------------------|--------------------------------|
B|--3----------------3h5p3------------|--------------------------------|
G|-------------2------------2---------|-------------3------------------|
D|-------4--------4------------4/6-6--|-------4--------4---4--2--0-----|
A|--4h5-----5------------------5/7-7--|----4-----4------------------2--|
E|------------------------------------|-2------------------------------|

e|------------------------------------|--------------------------------|
B|--3----------------3----------------|-2------------------------------|
G|-------------2--------2-------------|-------------3------------------|
D|-------4--------4-------------------|-------4--------4---4--2--0-----|
A|--4h5-----5--------------4--2--0----|----4-----4------------------2--|
E|----------------------------------4-|-2------------------------------|

e|------------------------------------|---------------------------------|
B|--3----------------3h5p3------------|---------------------------------|
G|-------------2------------2---------|-------------3----------3--------|
D|-------4--------4------------4/6-6--|-------4---------4---------4-----|
A|--4h5-----5------------------5/7-7--|----4-----4---------4---------4/-|
E|------------------------------------|-2-------------------------------|


| /  slide up
| \  slide down
| h  hammer-on
| p  pull-off
| ~  vibrato
| +  harmonic
| x  Mute note
===============================================================================
Related for City Of Angels tab