Song name
# A B C D E F G H I J K L M N O P Q R S T U V W X Y Z

Red Hot Chili Peppers - Soul To Squeeze Live tab

----------------------------------------------------------------------------
		Soul To Squeeze - Red Hot Chili Peppers
----------------------------------------------------------------------------
Tabbed by: Dakota
This is the 2 solos played by John Frusciante on Soul to Squeeze at La Cigale, France.
Theres also the chorus in between the 2, that I will also tab out.
Im only tabbing the solos along with the chorus, because everything else in the song is 
the same as the studio version.

Video : http://www.youtube.com/watch?v=1Vopof83ahs

SOLO #1
    (Hold Bend)
e|--------------------------------------|-------------------------------------------|
B|--------------------------------------|--------13----------13---------------------|
G|---12b14------------------------------|-----------12b14--------12b14--------------|
D|--------------------------------------|-------------------------------------------|
A|--------------------------------------|-------------------------------------------|
E|--------------------------------------|-------------------------------------------|

e|----------------------------------------------------------------------------------|
B|--13b15-----13--------------------------------------------------------------------|
G|--------------------12p10---12b14r12-------10---9---10b12---10--------------------|
D|----------------------------------------------------------------------------------|
A|----------------------------------------------------------------------------------|
E|----------------------------------------------------------------------------------|

e|--------------------------------------------------------------------------------------------|
B|-----------------------------------------------------------------------13-------------------|
G|--10p9p7------10p9p7------10p9p7-----10p9p7-----5/7--------------12b14-----r12p10-----------|
D|-----------------------------------------------------------------------------------12--12---|
A|--------------------------------------------------------------------------------------------|
E|--------------------------------------------------------------------------------------------|

CHORUS
(The Strumming isnt difficult to figure out)
e|---------------------0-------------|-------------------------------------------|
B|---10-------8--------6--------6----|-------10-------8-------6------5------6----|
G|---10-------9--------7--------7----|-------10-------9-------7------5------7----|
D|---10-------10-------7--------8----|-------10-------10------7------7------8----|
A|-----------------------------------|-------------------------------------------|
E|-----------------------------------|-------------------------------------------|

SOLO #2
                                   ~~~~~
e|-----------------------------------------|--------------------------------|
B|-----------------------------------------|--------------------------------|
G|---12b14r12---10---12---12b14---10-------|------10b12---r10-----10---10---|
D|-----------------------------------------|--------------------------------|
A|-----------------------------------------|--------------------------------|
E|-----------------------------------------|--------------------------------|

e|---------------------------------------------------------------------------------------------|
B|-----------------------13----------------------------------------10h11p10--------------------|
G|--12b14---b14---b14---------b14----b14r12----10-------------10----------------10-------------|
D|--------------------------------------------------10b(1/4)-----------------------------------|
A|---------------------------------------------------------------------------------------------|
E|---------------------------------------------------------------------------------------------|

e|-------------------------------------------------------------------------------------------|
B|-------------------------------------------------------------------------------------------|
G|--12b14r12-----10---10b12r10-----9---9b10r9-----7---7b9r7------5----------5b7r5------2-----|
D|-------------------------------------------------------------------------------------------|
A|-------------------------------------------------------------------------------------------|
E|-------------------------------------------------------------------------------------------|
                                                      Dm
e|-----------------------------------------------------5---------------------------|
B|-----------------------------------------------------6---------------------------|
G|--2--2--2--2----5/7---5------------------------------7---------------------------|
D|---------------------------7p5-------5-----5h7-------7---------------------------|
A|---------------------------------7-----------------------------------------------|
E|---------------------------------------------------------------------------------|

This is one of Frusciante easier solos. I hope you enjoy :)

| /  slide up
| \  slide down
| h  hammer-on
| p  pull-off
| ~  vibrato
| +  harmonic
| x  Mute note
============================================================================
Tap to rate this tab
# A B C D E F G H I J K L M N O P Q R S T U V W X Y Z