Song name
# A B C D E F G H I J K L M N O P Q R S T U V W X Y Z

Red Hot Chili Peppers - Shes Only 18 tab

(/) Slide Up  (\) Slide Down  (h) Hammer On  (p) Pull Off  (b) Bend (r) Release (v) Vibrato

E|----------------------------------------------------------------------------------|
B|---------------------------------------------------------------------------4------|
G|--------------------------------------------------------3--5--5v-----3--5-----5v--|
D|--------------------------------------------------3--5------------5---------------|
A|-------6--8/10--8--6--8-----6--8/10--8--6--8--6v----------------------------------|
E|--6/8--------------------8--------------------------------------------------------|

E|-------------------------------------------------------------------------------------|
B|--------4--4/6--4/6v--------11------11--13v------------------------------------------|
G|--3--5----------------4/12------12-----------12p10/8h10--10p8------10b12v--10--10p8--|
D|---------------------------------------------------------------10--------------------|
A|-------------------------------------------------------------------------------------|
E|-------------------------------------------------------------------------------------|

E|--------------------------------------------------------------------------------------|
B|--------------------------------------------------------------------------------------|
G|--10--10p8--10--10p8--10p8--10p8--10p8--10p8v--8--10/12--10--12/15--12--15/17b19--17--|
D|--------------------------------------------------------------------------------------|
A|--------------------------------------------------------------------------------------|
E|--------------------------------------------------------------------------------------|

E|----------------------------------18---------18---------------------------------------|
B|--18b20--18b19--18p16--18--18b20------18b20------18p16------16--18b20--18--18--18p16--|
G|--------------------------------------------------------17----------------------------|
D|--------------------------------------------------------------------------------------|
A|--------------------------------------------------------------------------------------|
E|--------------------------------------------------------------------------------------|

E|----------------------------|
B|------18p16---------16--17--|
G|--17---------17b19----------|
D|----------------------------|
A|----------------------------|
E|----------------------------|
							http://www.guitartabcreator.com
Tap to rate this tab
# A B C D E F G H I J K L M N O P Q R S T U V W X Y Z