Song name
# A B C D E F G H I J K L M N O P Q R S T U V W X Y Z

Red Hot Chili Peppers - Gong Li tab

-Gong Li-
by Red Hot Chili Peppers
Tab by crazytom

------------------------0-0-----
----------2----------2------2---
--------2----------2------------
---3--3------3---3--------------
--------------------------------
--------------------------------

------------------------4-4-2-2-0---
----------2----------2--------------
--------2----------2----------------
---3--3------3---3------------------
------------------------------------
------------------------------------

----------------------0-0-----
----------2--------2------2---
--------2--------2------------
---3--3-----3---3-------------
------------------------------
------------------------------

-----------------------7-7-4-2-0---
----------2---------2--------------
--------2---------2----------------
---3--3-----3---3------------------
-----------------------------------
-----------------------------------
Tap to rate this tab
 
# A B C D E F G H I J K L M N O P Q R S T U V W X Y Z