Guitaretab - guitar tabs
Song name
# A B C D E F G H I J K L M N O P Q R S T U V W X Y Z

Red Hot Chili Peppers - Road Trippin tab

Song: Road Trippin
Artist: Red Hot Chili Peppers
Album: Californication

Tuning: EADGBE

Riff 1 

e|---3-------3-------3---------------------------|
B|-------0-------0----------5--------4-------4---|
G|---4-------4------------------5--------4-------|
D|-2---2---2---2---2---2----5----------4---------|
A|------------------------3---3---3--2-----2---2-|
E|-----------------------------------------------|

e|---3-------3---5---3---------------------------|
B|-------0------------------5--------4-------4---|
G|---4-------4------------------5--------4-------|
D|-2---2---2---2-----2------5----------4---------|
A|------------------------3---3---3--2-----2---2-|
E|-----------------------------------------------|

bass guitar
G|------------------------------------------------|
D|-2--2--2--5---4---2-----------------------------|
A|---------------------3--3--3--3---2-------------|
E|--------------------------------------3---2---0-|


Riff 2

e|----------------------------------------7-------7-----|
B|-1-------1----3-------3----5-------5----------------8-|
G|-----2------------4------------5------------7---------|
D|---2------------4------------5----------0-------------|
A|-0-----0------2-----2------3-----3--------------------|
E|------------------------------------------------------|

Riff 3

e|--------------------------------------------------|
B|-8-------8-----------------5-------5----7-------7-|
G|-----7--------6-------6--------5------------7-----|
D|---9--------------5----------5------------7-------|
A|-7-----7--------7----------3-----3------5-----5---|
E|--------------5-----5-----------------------------|

e|--------------------------------------------------|
B|-8-------8-----------------5-------5----7-------7-|
G|-----7--------6-------6--------5------------5-----|
D|---9--------------5----------5------------7-------|
A|-7-----7--------7----------3-----3------6-----6---|
E|--------------5-----5-----------------------------|
[ Tab from: http://www.guitaretab.com/r/red-hot-chili-peppers/21544.html ]
e|--------------------------------------------------|
B|-8-------8-----------------5-------5----7-------7-|
G|-----7--------6-------6--------5------------7-----|
D|---9--------------5----------5------------7-------|
A|-7-----7--------7----------3-----3------5-----5---|
E|--------------5-----5-----------------------------|


e|--------------------------------------------------|
B|-8-------8-----------------5-------5----7-------7-|
G|-----7--------6-------6--------5------------5-----|
D|---9--------------5----------5------------7-------|
A|-7-----7--------7----------3-----3------6-----6---|
E|--------------5-----5-----------------------------|

e|-5-------5----8/11\8--8\5--5\2--2-------|
B|-----7-----------------------------1----|
G|---5----------------------------------2-|
D|-7-----7------7/10\7--7\4--4\1--1-------|
A|----------------------------------------|
E|----------------------------------------|


Riff 1 

e|---3-------3-------3---------------------------|
B|-------0-------0----------5--------4-------4---|
G|---4-------4------------------5--------4-------|
D|-2---2---2---2---2---2----5----------4---------|
A|------------------------3---3---3--2-----2---2-|
E|-----------------------------------------------|

e|---3-------3-------3----------------------7-|
B|-------0-------0--------5--------4-----/8---|
G|---4-------4----------------5--------4-/8-7-|
D|-2---2---2---2---2------5----------4---/8---|
A|----------------------3---3---3--2----------|
E|--------------------------------------------|

Riff 2

e|----------------------------------------7-------7-----|
B|-1-------1----3-------3----5-------5----------------8-|
G|-----2------------4------------5------------7---------|
D|---2------------4------------5----------0-------------|
A|-0-----0------2-----2------3-----3--------------------|
E|------------------------------------------------------|

Ending - repeat several times

e|-3-------3-------3-------3-|
B|-----0-------0-------0-----|
G|---------------------------|
D|-2-2---2---2---2---2---2---|
A|---------------------------|
E|---------------------------|

/ = slide up
\ = slide down
Related for Road Trippin tab
Road Trippin chords by Red Hot Chili Peppers