Song name
# A B C D E F G H I J K L M N O P Q R S T U V W X Y Z

Red Hot Chili Peppers - She Looks To Me tab

She Looks To Me - Red Hot Chili Peppers

Tabbed By: ME!! Michael hazelton
Tuning: Standard

great song took me a while but this is how it sounds. first tab so be nice an i 
think its pretty correct


_________________________________________________________________________________________


 Intro
-------

|----------------------------------------------|---------------------------14-----------14---------|
|--10-------10---------14----------14----------|--12----------12-----------------------------------|
|-----11----------11---------14----------14----|--------13----------13-----------13-----------13---|
|--------11----11---------14----14----14----14-|-----14----14----14----14-----14----14-----14------|
|----------------------------------------------|---------------------------------------------------|
|----------------------------------------------|---------------------------------------------------|

|----------------------------------------------|---------------------------------------------------|
|--10-------10---------14----------14----------|--12-----------------------------------------------|
|-----11----------11---------14----------14----|--13-----------------------------------------------|
|--------11----11---------14----14----14----14-|--14-----------------------------------------------|
|----------------------------------------------|---------------------------------------------------|
|----------------------------------------------|---------------------------------------------------|


*VERSE*
-------

Guitar 1 - A2, C, G, F   4x

Guitar 2- Pre Chorus
|-------------------|
|--------12~--------|
|-----13------------|
|--14---------------|
|-------------------|
|-------------------|




*CHORUS*
--------

Guitar 1 - F#m, A, E, Bm   4x

Guitar 2 - During Chorus
|---------------------------------------14-14-14-14--|
|--10--10-10-10---14-14--14--12-12--12--14-14-14-14--|
|--11--11-11-11---14-14--14--13-13--13--14-14-14-14--|
|--11--11-11-11---14-14--14--14-14--14---------------|
|----------------------------------------------------|
|----------------------------------------------------|



*CHORUS* (LEAD COMES IN) 
------------------------


Guitar 1 - F#m, A, E, Bm   4x

Guitar 2 - During Chorus
|---------------------------------------14-14-14-14--|
|--10--10-10-10---14-14--14--12-12--12--14-14-14-14--|
|--11--11-11-11---14-14--14--13-13--13--14-14-14-14--|
|--11--11-11-11---14-14--14--14-14--14---------------|
|----------------------------------------------------|
|----------------------------------------------------|

Guitar 3 

It looks to me like heaven sent this for your roughest night...

|------------14------------------------|---------------------------------------|
|---------17---------------------------|---------------------------------------|
|--16b17---------16b18--14h16--16p14---|----------14h16--14---------14h16--14--|
|--------------------------------------|---14h16-------------14h16-------------|
|--------------------------------------|---------------------------------------|
|--------------------------------------|---------------------------------------|


|--14b16--12---------------------------|
|--------------------------------------|
|------------16p14--16-16p14-----------|
|--------------------------------------|
|--------------------------------------|
|--------------------------------------|



*INTERLUDE*
-----------

Chords: A, C, F, F  x2




*SOLO* 
------

Guitar 1 - A2, C, G, F x8


Guitar 3

|------------------|------------------|--12~-------------|--17~--------------|
|------------------|--10~-------------|------------------|-------------------|
|--9~--------------|------------------|------------------|-------------------|
|------------------|------------------|------------------|-------------------|
|------------------|------------------|------------------|-------------------|
|------------------|------------------|------------------|-------------------|



*CHORUS*
--------

Guitar 1 - F#m, A, E, Bm   4x

Guitar 2 - During Chorus
|---------------------------------------14-14-14-14--|
|--10--10-10-10---14-14--14--12-12--12--14-14-14-14--|
|--11--11-11-11---14-14--14--13-13--13--14-14-14-14--|
|--11--11-11-11---14-14--14--14-14--14---------------|
|----------------------------------------------------|
|----------------------------------------------------|

Guitar 3

She shows the world up with her smile and then she throws the fight...

|--------------------------------------|--------14-----------------------------|
|--17b19--17-14-17b19------------------|-----17--------------------------------|
|--------------------------------------|--16--------16b18--14-16p14------------|
|--------------------------------------|---------------------------------------|
|--------------------------------------|---------------------------------------|
|--------------------------------------|---------------------------------------|

Down on the bathroom floor shes searching for another light...

|--------------------------------------|---------------------------------------|
|-------------------17-----------------|--------17-----------------------------|
|---------14-16b18-----16p14-----------|-16b18-----16--------------------------|
|--14h16-------------------------------|---------------------------------------|
|--------------------------------------|---------------------------------------|
|--------------------------------------|---------------------------------------|




*CHORUS* 
--------

Guitar 1 - G#m, B, F#, D#sus4/F#

Guitar 3 

It looks to me like heaven sent this for your roughest night...

|--------16----------------------------|---------------------------------------|
|-----19----18p16--18-18p16------------|---------------------------------------|
|--18----------------------------------|-18b20--16h18--15b16r15--13------------|
|--------------------------------------|----------------------------11---------|
|--------------------------------------|---------------------------------------|
|--------------------------------------|---------------------------------------|

Who's gonna take you home and hold you when things aren't so bright... 

|--------------------------------------|---------------------------------------|
|----------------14p12-----------------|---------------------------------------|
|--13b14--11h13------------------------|--18b20--18p16--18---15b17r15-13-11----|
|--------------------------------------|---------------------------------------|
|--------------------------------------|---------------------------------------|
|--------------------------------------|---------------------------------------|




*OUTRO*
-------

G#m, B, F#, D#sus4/F#   4x


______________________________________________________________________________________________


happi tabbin an pls give a gud rate. email at saint_mike_l@hotmail.com for anythin else

hayzo
Tap to rate this tab
# A B C D E F G H I J K L M N O P Q R S T U V W X Y Z