Song name
# A B C D E F G H I J K L M N O P Q R S T U V W X Y Z

Red Hot Chili Peppers - Under The Bridge tab

Help us improve GuitareTab! Take a short survey!
Red Hot Chili Peppers, Under The Bridge
---------------------------------------

Here's under the bridge.

----------------------------------------------------------------------
-3---3-----2----------3----353----------------------------------------
---2--2--------3--------2-----2---------------------------------------
--4-4--------4--4420---4--4----466--4--4420---------------------------
-5-----420--4-4-----2-5-5------577-4-4-----2--------------------------
----------42----------------------2-----------------------------------

X2 except just before the verse don't run down the 4420 (4th) 2(5th)
instead stay on the F# and arpeggiate the chord . Listen to the record.

Sometimes I feel like i dont have a partner    
E        B            C#m7        G#m  A    

etc
chords 6 5 4 3 2 1
E      x 7 9 9 9 x
B      7 9 9 8 7 x
C#m7   9 119 9 9
G#m    4 6 6 4 4 4
A      5 7 7 6 5 5

together we cry....
                  Emaj7

Emaj7  x 7 9 8 9 7

I don't ever wanna feel    like i did that day  take me to the place
F#m       E            B        F#m             x    x  x  F#m

I love          Take me all the way
  E   B             F#m               x x x x etc


F#m    x 9 111110 x
E      x 7 9 9 9 x
B      x x x 111211

Interlude 


A  Am G6 Fmaj7


A      x 0 7 6 5 5 
Am     x 0 7 5 5 5
G6     x 0 5 4 3 0
Fmaj7  x 0 3 2 1 0


Funky bit

Fmaj7  (1 bar) E7(1/2 bar) G (1/2 bar)  fast strumming

Fmaj7  x x 10101012
E7     x x 9 9 9 10
G      x x x 7 8 7


OK ! Tony.
=============================================================================
From: schnitzi@cs.ucf.edu (Mark Schnitzius)

Standard Disclaimer:--------------------------------------------
Okay, I finally got my Red Hot's Blood Sugar Sex Magic book back
from my friend so I'm going to post some of the FAQs about it (as
well as some of my other favorite bits).  The songbook has the complete
tab for guitar and bass and seems to be of very high quality --
very detailed.  Hopefully you will gain a greater appreciation of
John Frusciante's guitar work from it.  Some of the earlier stuff
I posted from it was strictly from my memory, so was wrong in places.
I will be correcting those bits as well.

PLEASE NOTE: I will take requests for other bits of it, as well as
lyrics, but I will only respond to those personages who are actually
posting tab on a fairly regular basis.  The ratio of tab requests to
actual tab has been pretty pathetic lately, no?

Another note:  To assuage my guilty conscience about posting copy-
righted material (and possibly taking money out of the pockets of
one of my favorite bands), let me give the address of the company
who makes it:

     Amsco Publications
     Music Sales Corporation
     225 Park Avenue South
     New York, NY 10003

I would certainly encourage any of you to pick up a copy if you get
the chance.  And now, on to the music:

------------------------------------------------------------------
UNDER THE BRIDGE

Somebody (Big Toee?) was right again -- UTB starts in the key of D.
This opening for guitar one is listed as 'capoed on the second fret'.

-------------------|-------------------|-----------------------------
1-------1----------|0------------------|------------1/3+1------------
----0-----0--------|--------1----------|--------0---------0----------
--2---2------------|----2-----2-2-0----|----2---------------(2)/(4)-4
3-----------2-0----|--2---2---------3-0|2/3---3---3----------3-/-5--5
----------------3-2|0------------------|-----------------------------

-------------------|-----------------------|------------------------
0------------------|------------1----------|------------------------
--------1----------|--------0-----0--------|------------1-----------
----2-----2-2-0----|----2-----2------------|----(2)-2-----2-2-0-----
--2---2---------3-0|2/3---3---------2-0----|--2-------X---------3-0-
0------------------|--------------------3-2|0-----------------------

-----------------------------|---------------------|----------------
------------1/3+1------------|---------------------|-7---X----------
--------0---------0----------|--------1-----1------|-7---X----------
----2---------------(2)/(4)-4|----2-----2-----2----|-7---X----------
2/3---3---3----------3-/-5--5|--2---2-----2-----2/5|-5---X----------
-----------------------------|0--------------------|----------------

That ends the part for the first guitar.  In the last measure here the
second guitar chimes in -- this guitar is without the capo, though, so
if you played the above without a capo, you'll have to play this part
down two frets, or the above part up two frets.  Here is the second
guitar part, starting at the same time as the vocals:

----------|-------------|---------|---------|
-9--X-7--X|-----9---7--5|9--X-7--X|9--5--X--|
-9--X-8--X|-----9---8--6|9--X-8--X|9--6--X--|
-9--X-9--X|9/11-11--9--7|9--X-9--X|11-7--X--|
-7--------|9/11---------|7-------X|11-7--X--|
----X-7--X|---------7--5|---X-7--X|9--5--X--|

Basically, do that twice then let this chord ring:

-----
--9--
--8--
--9--
--7--
-----

The chorus is like this:

----------|--------------------------|
-10--9-9-9|16-16-16-16-14-14-14-X-X--|
-11--9-9-9|16-16-16-16-14-14-14-X-X--|
-11--9-9-9|16-16-16-16-16-16-16-X-X--|
-9---7-7-7|14-14-14-14-16-16-16-X-X--|
----------|------------14-14-14-X-X--|


Mark Schnitzius
University of Central Florida
schnitzi@eola.cs.ucf.edu 
===============================================================================
From: bgray1@cc.swarthmore.edu (Brandon Gray)
Date: 16 Oct 92 16:49:43 GMT

                          "Under the Bridge"(intro)

let ring clearly...

E---------------2---------I----------------------------------I--------------
B---------3---------3-----I----------------------------------I--------------
G------2-----2---------2--I-------------------------3--------I--------------
D---0---------------------I-------------------4--------4-----I-4--2--0-----0
A-------------------------I-4--2--0--------4-----4--------4--I----------2---
E-------------------------I----------4--2--------------------I--------------



                                                ==>   (repeat1x only)
E-----------2--------I---------------------------I-------------I I-----
B------3-------3-----I---------------------------I-------------I I--9--
G---2----2--------2--I------------------3--------I-------------I*I--9--
D--------------------I-0--2--------4-------4-----I-4--2--0-----I I--9--
A--------------------I----------4----4--------4--I----------2--I*I--7--
etc.
E--------------------I-------2-------------------I-------------I I-(0)--


That's all I have time for now...but I can tell you that the chord
progression goes as follows:  E     B Bsus4 B   C#m   G#m   A  ;   E   B
Bsus4 B   C#m  A 
etc. ->  Emaj7 (note: they're all barre chords - 2nd pos.) etc.

If no one else posts the tab, just ask me to and I'll post the rest when I
get back in a week or so...See Ya'!!

From ceh1@acpub.duke.edu Thu Apr 14 11:22:17 1994
From: ceh1@acpub.duke.edu (Charles Eric Horowitz)
Subject: RHCP: Under the Bridge
Date: 12 Apr 1994 12:19:56 MET
Organization: Duke University; Durham, NC; USA

Heres Under the Bridge by the Red Hot Chili Peppers:


Intro -- Clean guitar
e------------------------------------------------------------------
b---3--------3-----------------------------------------------------
g--------2-----2---------------3--------3--------------------------
d------4---4------------------------4-----4----4--2--0-------------
a---5-------------4--2--0--------4----4-----------------2----------
E--------------------------4---2-----------------------------------


e------------------------------------------------------------------
b--3---------------3p5h3-------------------------------------------
g------------2-----------2----------------------3------------------
d--------4------4-----------4/6--6--------4--------4---------------
a--4/5-----5----------------5/7--7-----4-----4---------4--2--0-----
E-----------------------------------2---------------------------4--

e------------------------------------------------------------------
b---3--------3-----------------------------------------------------
g--------2-----2---------------3--------3--------------------------
d------4---4------------------------4-----4----4--2--0-------------
a---4/5-------------4--2--0--------4----4-----------------2--------
E--------------------------4---2-----------------------------------


e------------------------------------------------------------------
b--3---------------3p5h3-------------------------------------------
g------------2-----------2----------------------3---------3--------
d--------4------4-----------4/6--6--------4--------4--------4------
a--4/5-----5----------------5/7--7-----4-----4---------4------4\---
E-----------------------------------2------------------------------


Enter vocals...

e---------7-----------9----4---5----------7----9----5--------------
b--9--X---7-----------9----4---5------9---7----9----5--------------
g--9--X---8-----------9----4---6------9---8----9----6--------------
d--9--X---9-----------9----6---7------9---9----9----7--------------
a--7--X---9---9/11---11----6---7------7---9---11----7--------------
E---------7---7/9-----9----4---5----------7----9----5--------------

				            Enter Drums.......
e-----7---9---4--5-------7---9--5-----------7----------------------
b--9--7---9---4--5----9--7---9--5-----------9----------------------
g--9--8---9---4--6----9--8---9--6-----------8----------------------
d--9--9---9---6--7----9--9---9--7-----------9----------------------
a--7--9--11---6--7----7--9--11--7-----------7----------------------
E-----7---9---4--5-------7---9--5-----------7----------------------


Slight Distortion
Main Rhythm
e------------7-7---------------------------------4--5--5h7p5-------
b---9--9--X--7-7------------------------9----9---4--5--------5-----
g---9--9--X--8-8------8h10p8---8--------9-11-9---4--6--------------
d---9--9--X--9-9---9--7------9----------9----9---6--7--------------
a---7--7--X--9-9------------------9/11-----------6--7--------------
E------------7-7------------------7/9------------4--5--------------


e------------7-7----------------------------------5--5-------------
b---9--9--X--7-7------------------------9----9----5----5-----------
g---9--9--X--8-8------8h10p8---8--------9-11-9----6------6---------
d---9--9--X--9-9---9--7------9----------9----9----7----------------
a---7--7--X--9-9------------------9/11------------7----------------
E------------7-7------------------7/9-------------5----------------


	|     Chorus
e--7----|-----------9----------------11--11--11--11-----9---9---9---
b--9----|-----X-X--10---9--9----9----12--12--12--12----10--10--10---
g--8----|-----X-X--11---9--9----9----11--11--11--11----11--11--11---
d--9----|-----X-X--11---9--9----9----------------------11--11--11---
a--7----|-----------9---7--7----7-----------------------9---9---9---
E--7----|-----------9-----------------------------------9---9---9---


  Bridge--Distortion
e---5-5-5--5---5----3-3-3--1-1-1-1------12----10---7---------------
b---5-5-5--5---5----3-3-3--1-1-1-1------10-----9---8---------------
g---6-6-6--5---5----4-4-4--2-2-2-2------10-----9---7---------------
d---7-7-7--7---7----5-5-5--3-3-3-3------10-----9-------------------
a------------------------------------------------------------------
E------------------------------------------------------------------
   |______________________________|     X16    X8  X8
               X3


e---5-5-5--5---5----3-3-3---------------------------------
b---5-5-5--5---5----3-3-3----------------------------------
g---6-6-6--5---5----4-4-4-----------5^6-----------------------
d---7-7-7--7---7----5-5-5---/5---7-------7--5--7------------------
a------------------------------------------------------------------
E------------------------------------------------------------------

Repeat till Breakdown.
  The rest is soft Arpeggiated chords from the Bridge.

I hope this is close to correct.

One note:
      as with a lot of John Frusciante(sp?) guitar work, there is 
        a lot of ad libbing with how much of the chord is played, 
        as well as muted picking(those percussive X's) and
         string noise from sliding you hand to different positions, 
         so ad lib a bit, and listen to where he throws them in.

Enjoy! 
CHUCK

From rvellani@magnus.acs.ohio-state.edu Tue Nov  1 16:10:08 1994
From: rvellani@magnus.acs.ohio-state.edu (Raymond Vellani)
Subject: Repost of under the bridge
Date: 30 Oct 1994 04:07:48 GMT
Organization: The Ohio State University


To: jamesb@nevada.edu
Message-id: <9403231621.AA16682@iutazoe.univ-lyon1.fr>
Content-transfer-encoding: 7BIT
Apparently-To: jamesb@nevada.edu
                  Under The Bridge
                Red Hot Chili Peppers


Transcripted by Flop.

I didn't bother myself with timing, so hear the song !!!

Intro(capo 2nd fret) :
(chords indicated with capo)
(let ring throughout the intro)
  D                      F#                    D
e|---------------------!---------------------!--------------___----------|
b|(1)------1-----------!(0)------------------!-------------1-3-1---------|
g|-----0-----0---------!---------1-----------!---------0---------0-------|
d|---2---2-------------!-----2-----2-2-0-----!-----2---------------2/4-4-|
a|-3-----------2-0-----!---2---2---------3-0-!-2/3---3---3---------3/5-5-|
E|-----------------3-2-!-0-------------------!---------------------------|

   F#                    D                         F#
e|---------------------!-------------------------!---------------------|
b|-0-------------------!-------------1-----------!---------------------|
g|---------1-----------!---------0-----0---------!---------1-----------|
d|-----2-----2-2-0-----!-----2-----2-------------!-----2-----2-2-0-----|
a|---2---2---------3-0-!-2/3---3---------2-0-----!---2---2---------3-0-|
E|-0-------------------!---------------------3-2-!-0-------------------|

  D                            F#
e|--------------___----------!-----------------------|
b|-------------1-3-1---------!-----------------------|
g|---------0---------0-------!---------1-----1-------|
d|-----2-----2---------2/4-4-!-----2-----2-----2-----|
a|-2/3---3-------------3/5-5-!---2---2-----2-----2/5-|
E|---------------------------!-0---------------------|


Part A :(chords only)

(barre chords)
(It' s a really simplified version)
NB : Emaj7 :779897

E          B(VII)          C#m(IX)       B(7) A(V)
Some-times I feel__ like I don't have a part-ner.

E          B(VII)           C#m(9)  A(V)
Some-times I feel__ like my only friend__

N.C.     E        B           C#m       B   A
is the cit-y I live__ in, the Cit-y of An-gels.

   E       B           C#m          A    Emaj7(let ring)
Lone-ly as I___ am, to-geth-er we cry__.


Part B :

  E                 B            C#m         B    A
I drive on the streets__, 'cause she's my com-pan-ion.

     E                B               C#m         A
I walk through the hills__ 'cause she knows who I am___.

     E             B             C#m        B   A
She sees my good deeds__ and she kiss-es me win-dy.

E       B             C#m        A      Emaj7(let ring)
I nev-er wor-ried now that is a lie__.


Part C :(repeat three times)

F#m(IX)             E            B(XIV)     F#m(XIV)
I don't ev-er want to feel____________ like I did that day.

F#m(IX)              E               B(XIV)  F#m(XIV)
Take me to the place I love____________ take me all the way.

third time :
       E    B         C#m      B    A      E     B     C#m      A
way_____    yea         Yea    yea        
Repeat Part B with the following words :

It's hard to believe that there's nobody out there.
It's hard to believe that I'm all alone.
At least I have her love, the city she loves me.
Lonely as I am, together we cry.

Then part C, with that end (let's call it part D):

         A     C             G6     Fmaj7
   way____     yea!___       yea.   yea____.
e|-------0-0___--------------0--0-0-0--------0---|
b|-------5-5 8 5-------------3--3-3-1------1-1-1-|
g|-------6-----5-------------4--4-4-2------2-2---|
d|-------7-----5-------------5--5-5-3------3-3---|
a|-----------------------------------------------|
E|-----------------------------------------------|

   A   C/G            G6   Fmaj7      A     C/G           G6  Fmaj7
Oh,    no__ no no__   yea  yea!__    Love__ me__ I say__  yea yea!__
(with  part D's rythm figure)

Then part E :
Chords:
#1(name?) :  X  X 10 10 10 12
#2        :  X  X  9  9  9 10
#3        :  X 10 12 12 12  X

#1                          #2           #3
     (spoken) : One time.

Part F(or so...) :
  Guitar 1 plays part D while accoustic guitar plays :

(acc guitar)     A                   C            G6       Fmaj7
(lead vocal)                                      is where I drew some blood
(back vocals)   (un-der the bridge__ down-town__  is where I drew some blood

(with same chords):

lvoc:                            I could not get enough
bvoc: under the bridge downtown  I could not get enough

l:                               forgot about my love
b:Under the bridge downtown      forgot about my love

l:                               I gave my life away
b:Under the bridge downtown      I gave my life away_____

l:               Yea!________    Yea     Yea____
b:______________________________                   a-

l:No        no___ no no    no    yea    yea____
b:way___________________________                   a-

l:Down   town          I said oh  yea yea_______
b:way________________________________              a-

l:          (spoken):will I stay
b:way___________________________

And now the outro (or part G):

   A        C             G6    ?                A       C
                              let ring---------         let ring--------
e:-0-0-0--0-------------:-0-0---0------_---0---|-0--0-0------------_----|
b:-5-5-5--5-5--5-5--5-5-:-3-3---0-----0 1----1-|-5--5-5--5--5-5-5-8 5-5-|
g:-6-6-6--6-5--5-5--5-5-:-4-4---2--------------|-6--6-6--5--5-5-5-5-----|
d:-7-7-7--7-5--5-5--5-5-:-5-5---3--------------|-7--7-7--5--5-5-5-------|
a:----------------------:----------------------|------------------------|
E:----------------------:----------------------|------------------------|

   G6          Fmaj7       A      C              G6         Fmaj7 
           let ring------          let ring----
e:-0--0-0--0---0--___----:-0--0-0---------_----:-0--0-0--0---0--0-0--|
b:-3--3-3--0---1-0 1 0---:-5--5-5-5--5-5-8 5---:-3--3-3--0---1--1-1/-|
g:-4--4-4--2---2-------2-:-6--6-6-5--5-5-----5-:-4--4-4--2---2--2-2/-|
d:-5--5-5--3---3---------:-7--7-7-5--7-7-------:-5--5-5--3---3--3-3/-|
a:-----------------------:---------------------:---------------------|
E:-----------------------:---------------------:---------------------|

   A        C                 G6          Fmaj7  A
            let ring-------        let ring-
e|-0--0-0-------------------|-0-------0---0-|----0------|
b|-5--5-5---5--5-5--5-------|-3--3----0---1-|----2------|
g|-6--6-6---5--5-5--5 7 5---|-4----0--2---2-|----2------|
d|-7--7-7---5--5-5---___--7-|-5-------3---3-|----2------|
a|--------------------------|---------------|----0------|
E|--------------------------|---------------|-----------|


That's all folks


If anyone has tablatures or anything for the following songs, I would be more
than happy


Red Hot Chili Peppers' SIKAMIKANICO
Cure's    Three Imaginary Boys
Anything from Bauhaus, Dead Kennedys
David Bowie's Ashes to ashes and Is there life on Mars ?
Some Ramones
Any RedHotChiliPeppers

That's all I can think of now.
You can send comments to me at this adress(I think that's correct) :
gr1305@univ-lyon1.iutazoe.fr
or
gr1305@iutazoe.univ-lyon1.fr

From SPEX49D@prodigy.com Sat Nov  5 15:17:27 1994
From: SPEX49D@prodigy.com (JOHN VETTESE )
Subject: Re: Tab:Red Hot Chilli Peppers
Date: 04 Nov 1994 03:20:13 MET
Organization: Prodigy Services Company  1-800-PRODIGY

UNDER THE BRIDGE.
(capo on the second fret)
INTRO
1:-------------------------------------
2:-1-------1-------------0-------------
3:-----0-----0-------------------1-----
4:---2---2-------------------2-----2---
5:-3-------------2-0-------2---2------- 
6:-------------------3-2-0-------------

1:--------------------------------------
2:---------------------1^3^1------------
3:-----------------0---------1----------
4:-2-0---------2-----2---------2/(4)-4-- 
5:-----3-0-2/3---3-------------3/(5)-5--
6:--------------------------------------

1:-------------------------------------- 
2:-0--------------------------------1---
3:---------1--------------------0-----0-
4:-----2-----2--2-0---------2-----2-----
5:---2---2----------3-0-2/3---3--------- 
6:-0------------------------------------

1:-------------------------------------- 
2:--------------------------------------
3:--------------------1-----------------
4:-------------2-2------2--2-0---------2
5:-2-0-------2-----x-----------3-0-2/3--
6:-----3-0-0----------------------------

1:--------------------------------------
2:-------1^3^1-------------------------
3:---0---------0-----------------1------ 
4:-----2---------2/(4)-4-----2-----2---- 
5:-3-------------3/(5)-5---2---2-----2-- 
6:-----------------------0--------------

1:---------
2:---------
3:-1-------
4:---2-----
5:-----2/5-
6:---------

FIRST VERSE
D           A           Bm(Fill 1)
Sometimes I feel like I don't have a
A    G    D           A         Bm
part-ner. Sometimes I feel like my only
G              D     A            Bm
friend is the city I live in, the city
   A  G     D         A     Bm
of an-gels. Lonely as I am, together we
G      Dmaj7
cry.

Fill 1
1:------2-
2:------3-
3:-2/4----
4:-2/4----
5:--------
6:--------

SECOND VERSE
   D    A               Bm                  A
1:-2--2-0------------------------2-----2----0-- 
2:-3--3-2-2---2^3^2---------3--3-3-3--2--
3:-2--2-2---2-------2---2/4-----4--------2--
4:-0--0-2-----------------2/4-----4--------2--
5:----------------------------------
6:---------------------------------- 
   G             D     A             Bm
1:-3-3^5^3---2--2--0-------------------2----2 
2:-3---------3--3--3--2-2---2^3^2----3----3- 
3:-4---------4--2--2--2---2------2--2/4--4--
4:-5-------------0--0--2---  ----------2/4--4--
5:-5------------------------------------
6:-3------------------------------------
   G
1:-3-3---
2:-3--3--
3:-4---4-
4:-5-----
5:-5-----
6:-3-----

CHORUS
        Em      D       A          G
I don't ever wanna feel like I did that 
             Em           D       A
day. Take me to the place I love, take
       G
me all the way.

THIRD VERSE
 Same as second verse, play 3 times.  Start singing on the 2nd time.

OUTRO
  Guitar 2 (Uncapoed)
1:-0--0-0------------------------------- 
2:-5--5-5-8--5--5-5-5-5--3--3-3-3-1--1-1
3:-6--6-6-----5--5-5-5-5--4--4-4-4-2--2-2 
4:-7--7-7-----5--5-5-5-5--5--5-5-5-3--3-3
5:-------------------------------------- 
6:--------------------------------------

  Guitar 3 (Uncapoed) after 3 repeats of
  Guitar 2's part
1:-12--12-12-12-12-12-12-12--12-12-12-12 
2:-10--10-10-10-10-10-10-10--10-10-10-10
3:-10--10-10-10-10-10-10-10--10-10-10-10
4:-10--10-10-10-10-10-10-10--10-10-10-10
5:--------------------------------------
6:--------------------------------------

1:-12-12-10--10-10-10-10-10-10---------- 
2:-10-10--9---9--9--9--9--9--9-12--12-12
3:-10-10--9---9--9--9--9--9--9-12--12-12
4:-10-10--9---9--9--9--9--9--9-12--12-12 
5:-----------------------------10--10-10
6:--------------------------------------

1:------------
2:-12-12-12-12 
3:-12-12-12-12
4:-12-12-12-12
5:-10-10-10-10
6:------------

Guitar 2 plays it's part 8 times while Guitar 3 plays Fill 2 8 times
Fill 2
1:--------------------
2:--------------------
3:--------------------
4:-------10-----------
5:-10-12----12-10-12--
6:--------------------

1:-0--0-0-0-------------0--0-0------------0---- 
2:-5--5-5-5--5--5-5-5-5-3--3-0-0^1---1--
3:-6--6-6-6--5--5-5-5-5-4--4-2---------- 
4:-7--7-7-7--5--5-5-5-5-5--5-3----------
5:--------------------------------------
6:--------------------------------------

1:-0--0-0---------------------0--0-0-0-0------- 
2:-5--5-5-5--5-5-8^5-5-3--3-3-0-1-0^1^0- 
3:-6--6-6-5--5-5-5-------4--4-4-2-2------2 
4:-7--7-7-5--5-5----------5--5-5-3-3------- 
5:--------------------------------------
6:--------------------------------------

1:-0--0-0--------------------0--0-0-0--0--0-0/
2:-5--5-5-5--5-5-8^5---3--3-3-0--1--1-1/ 
3:-6--6-6-5--5-5-----5--4--4-4-2--2--2-2/
4:-7--7-7-5--7-7----------5--5-5-3--3--3-3/
5:-------------------------------------- 
6:--------------------------------------

1:-0--0-0-----------------------0-----0--0--0--
2:-5--5-5-5--5-5-5----------3-3---0--1--2--
3:-6--6-6-5--5-5-5^7^5---4---0-2--2--2--
4:-7--7-7-5--5-5---------7--5-----3--3--2-- 
5:------------------------------------------------0--
6:--------------------------------------
Related for Under The Bridge tab