Song name
# A B C D E F G H I J K L M N O P Q R S T U V W X Y Z

Red Hot Chili Peppers - If tab

IF- Red Hot Chili Peppers
Acoustic version by sinForge xJp

This IS NOT based on a recording/performance!!

Standard Tuning, Capo 2


  Riff 1 (Verse)
e|------------------------------------------|--------------------------------------|
B|------------------------------------------|-------------------------0-------2--0-|
G|----4--------4--2--------2--0--------2--0-|--------------------------------------|
D|------------------------------------------|-2--------2--4--------4---------------|
A|------------------------------------------|-------3-----------5------------------|
E|-3--------3-----------3-----------3-------|------------------------------3-------|


  Riff 2 (Prechorus)
e|----------------------------------------------------------|-
B|----------------------------------------------------------|-
G|-------------------------------0--------0------0-----0----|-
D|-4--------4-----4--------4--------------------------------|-
A|-------5-----5--------5-----5-----------------------------|-
E|-------------------------------------3-----3------3-----3-|-

e|---------------------------------------------|-
B|---------------------------------------------|-
G|-------------------------------0--------2--0-|-
D|-4--------4-----4--------4-------------------|-
A|-------5-----5--------5-----5----------------|-
E|-------------------------------------3-------|-


  Riff 3 (Chorus, "All I knew.." etc)
e|-----------------------------------|-----------------------------------|
B|-----------------------------------|-----------------------------------|
G|-------------------------0---0-0-0-|-------------------------0---0-0-0-|-
D|-1---1-1-1---3---3-3-3---0---0-0-0-|-1---1-1-1---3---3-3-3---0---0-0-0-|-
A|-1---1-1-1---3---3-3-3-------------|-1---1-1-1---3---3-3-3-------------|-
E|-------------------------3---3-3-3-|-------------------------3---3-3-3-|-
Tap to rate this tab
# A B C D E F G H I J K L M N O P Q R S T U V W X Y Z