Song name
# A B C D E F G H I J K L M N O P Q R S T U V W X Y Z

Red Hot Chili Peppers - Soul To Squeeze tab

I'm 99% sure tht the tab is right, don't go so hard on me; is my first tab :P

Intro:
Guitar I
e:----------------------------------|
B:----------------------------------|
G:------2------4b5p2-------------2--|
D:---2----------------------2h4-----|
A:0--------0----------0--0----------|
E:----------------------------------|

           
e:-----------------------------------------|
B:------------------------------5----------|
G:-------2-----------2-----4/6-----6\4\2---|
D:----2--------2---------------------------|
A:-0--------0-----0-----0------------------|
E:-----------------------------------------|                       


e:-----------------------------------|--------------------------------|
B:-----------------------------------|--------------------------------|
G:--------2-----4b5p2-------------2--|--------2-----------------------|
D:-----2---------------------2h4-----|-----2--------2-----2-----------|
A:--0--------0---------0--0----------|--0--------0-----0--------------|
E:-----------------------------------|-----------------------3--0--3--|
                                        
e:-----------------------------------|
B:-----------------------------------|
G:--------2-----4b5p2-------------2--|
D:-----2---------------------2h4-----|
A:--0--------0---------0--0----------|
E:-----------------------------------|
                                       
e:-------------------------------5--------|
B:----------------------------------------|
G:--------2-----------------4/6-----6\4\2-|
D:-----2--------2-----2-------------------|
A:--0--------0-----0-----0----------------|
E:----------------------------------------|
                                                                            
e:----------------------------------|
B:----------------------------------|
G:--------2-----4b5p2-------------2-|
D:-----2---------------------2h4----|
A:--0--------0---------0--0---------|
E:----------------------------------|
   
e:----------------------------------|
B:-----------2---2---2---2----------|
G:--------2--2---2---2---2----------|
D:-----2-----2---2---2---2----------|
A:--0--------0---0---0---0----------|
E:----------------------------------|


       F             C            Dm    Bb/Dm  
e:-------1----------------------|--------------------|
B:-------1-----------5--5-------|-6--6-6-6-6---------|
G:-------2-----------5--5-------|-7--7-7-7-7---------|
D:-------3-----------5--5-------|-7--7-7-7-7---------|
A:-------3--------3--3--3--5h7p5|-5--5-5-5-X---------|
E:----1--1---3/5----------------|----------6---------|

     Dm             F                        C       Gm 
e:-----------------------------------------|----------3---3-3--3-3-3h5|
B:--6-6-6-6-6-6-6-X-8--8--8--8--8--8--8--X-|-5--5-5---3---3-3--3-3----|
G:--7-7-7-7-7-7-7-X-10-10-10-10-10-10-10-X-|-5--5-5---3---3-3--3-3----|
D:--7-7-7-7-7-7-7-X-10-10-10-10-10-10-10-X-|-5--5-5---5---5-5---------|
A:--5-5-5-5-5-5-5-X-10-10-10-10-10-10-10-X-|-3--3-3---5---5-5---------|
E:-----------------------------------------|--------------------------|
|                                                               |  


       F             C            Dm    Dm  
e:-------1----------------------|----------------------|
B:-------1-----------5--5-------|-6---------------6----|
G:-------2-----------5--5-------|-7------10h12p10-7----|
D:-------3-----------5--5-------|-7---------------7----|
A:-------3--------3--3--3---5/7-|-5---------------5----|
E:----1--1---3/5----------------|----------------------|
 
   Dm             F                          C       Gm
e:-----------------------------------------|----------3---3-3--3-3-3h5|
B:--6-6-6-6-6-6-6-X-8--8--8--8--8--8--8--X-|-5--5-5---3---3-3--3-3----|
G:--7-7-7-7-7-7-7-X-10-10-10-10-10-10-10-X-|-5--5-5---3---3-3--3-3----|
D:--7-7-7-7-7-7-7-X-10-10-10-10-10-10-10-X-|-5--5-5---5---5-5---------|
A:--5-5-5-5-5-5-5-X-10-10-10-10-10-10-10-X-|-3--3-3---5---5-5---------|
E:-----------------------------------------|--------------------------|


First Verse: 

       F             C            Dm    Bb/Dm  
e:-------1----------------------|--------------------|
B:-------1-----------5--5-------|-6--6-6-6-6---------|
G:-------2-----------5--5-------|-7--7-7-7-7---------|
D:-------3-----------5--5-------|-7--7-7-7-7---------|
A:-------3--------3--3--3---5h7-|-5--5-5-5-X---------|
E:-0h1---1---3/5----------------|----------6---------|


    Dm             F                        C       Gm
e:-----------------------------------------|----------3---3-3---|
B:--6-6-6-6-6-6-6-X-8--8--8--8--8--8--8--X-|-5-5-5-5--3---3-3---|
G:--7-7-7-7-7-7-7-X-10-10-10-10-10-10-10-X-|-5-5-5-5--3---3-3---|
D:--7-7-7-7-7-7-7-X-10-10-10-10-10-10-10-X-|-5-5-5-5--5---5-5---|
A:--5-5-5-5-5-5-5-X-10-10-10-10-10-10-10-X-|-3-3-3-3--5---5-5---|
E:-----------------------------------------|--------------------|

       F             C            Dm    Dm  
e:-------1----------------------|----------------------|
B:-------1-----------5--5-------|-6---------------6----|
G:-------2-----------5--5-------|-7------10h12p10-7----|
D:-------3-----------5--5-------|-7---------------7----|
A:-------3--------3--3--3---5/7-|-5---------------5----|
E:-0h1---1---3/5----------------|----------------------|
                                                      

Chorus, Use these chords but only strum once.  
 
     F    C   Dm9  Bb Am  Bb
e:-------------0----------------|
B:---10---8----6---6---5--6-----|
G:---10---9----7---7---5--7-----|
D:---10---10---7---8---7--8-----|
A:------------------------------|
E:------------------------------|


Chorus x1

Solo :
e:-------------------|----|-----------8--------|------------------|
B:-10\8--6--8/10--6~-|----|-/10-10-10----10\8--|-----6---------6--|
G:-------------------|----|--------------------|--------/7--------|
D:-------------------|----|--------------------|------------------|
A:-------------------|----|--------------------|------------------|
E:-------------------|----|--------------------|------------------|

     
e:----------------------|--------|--------------/10\8----------|-----------|
B:-/10--8--6--8--10-6/8-|-\6-----|-/10--10--10----------10--10-|-\8-\6-\5--|
G:----------------------|-----7--|-----------------------------|-----------|
D:----------------------|--------|-----------------------------|-----------|
A:----------------------|--------|-----------------------------|-----------|
E:----------------------|--------|-----------------------------|-----------|


Bridge
    Dm         C               Am
e-|--------------------------|-----------------------------------|
B-|--6---6--x-x-5----5--5----|--1-1-1-1-1-1-1-1-1-1-1-1-1-1-1-1--|
G-|--7---7--x-x-5----5--5----|--2-2-2-2-2-2-2-2-2-2-2-2-2-2-2-2--|
D-|--7---7--x-x-5----5--5----|--2-2-2-2-2-2-2-2-2-2-2-2-2-2-2-2--|
A-|--5---5--x-x-3----3--3----|--0-0-0-0-0-0-0-0-0-0-0-0-0-0-0-0--|
E-|--------------------------|-----------------------------------|
                                                                 


e-|--------------------------|-----------------------------------|
B-|--6---6--x-x-5----5--5----|--1-1-1-1-1-1-1-1-1-1-1-1-1-1-1-1--|
G-|--7---7--x-x-5----5--5----|--2-2-2-2-2-2-2-2-2-2-2-2-2-2-2-2--|
D-|--7---7--x-x-5----5--5----|--2-2-2-2-2-2-2-2-2-2-2-2-2-2-2-2--|
A-|--5---5--x-x-3----3--3----|--0-0-0-0-0-0-0-0-0-0-0-0-0-0-0-0--|
E-|--------------------------|-----------------------------------|

 
e-|--------------------------|-----------------------------------| 
B-|--6---6--x-x-5----5--5----|--1-1-1-1-1-1-1-1-1-1-1-1-1-1-1-1--|
G-|--7---7--x-x-5----5--5----|--2-2-2-2-2-2-2-2-2-2-2-2-2-2-2-2--|
D-|--7---7--x-x-5----5--5----|--2-2-2-2-2-2-2-2-2-2-2-2-2-2-2-2--|
A-|--5---5--x-x-3----3--3----|--0-0-0-0-0-0-0-0-0-0-0-0-0-0-0-0--|
E-|--------------------------|-----------------------------------|

e-|--------------------------|-----------------------------------|
B-|--6---6--x-x-5----5--5----|--1--1--3--------------------------|
G-|--7---7--x-x-5----5--5----|--2--2--3--------------------------|
D-|--7---7--x-x-5----5--5----|--2--2--3--------------------------|
A-|--5---5--x-x-3----3--3----|--0--0--1--------------------------|
E-|--------------------------|-----------------------------------|

Verse 
       F             C            Dm    Bb/Dm  
e:-------1----------------------|--------------------|
B:-------1-----------5--5-------|-6--6-6-6-6---------|
G:-------2-----------5--5-------|-7--7-7-7-7---------|
D:-------3-----------5--5-------|-7--7-7-7-7---------|
A:-------3--------3--3--3---5h7-|-5--5-5-5-X---------|
E:----1--1---3/5----------------|----------6---------|
                                                    

    Dm             F                        C       Gm
e:-----------------------------------------|----------3---3-3-3-3h5|
B:--6-6-6-6-6-6-6-X-8--8--8--8--8--8--8--X-|---5-5-5--3---3-3-3----|
G:--7-7-7-7-7-7-7-X-10-10-10-10-10-10-10-X-|---5-5-5--3---3-3-3----|
D:--7-7-7-7-7-7-7-X-10-10-10-10-10-10-10-X-|---5-5-5--5---5-5------|
A:--5-5-5-5-5-5-5-X-10-10-10-10-10-10-10-X-|---3-3-3--5---5-5------|
E:-----------------------------------------|-----------------------|

       F             C            Dm    Dm  
e:-------1----------------------|----------------------|
B:-------1-----------5--5-------|-6---------------6----|
G:-------2-----------5--5-------|-7------10h12----7----|
D:-------3-----------5--5-------|-7---------------7----|
A:-------3--------3--3--3---5h7-|-5---------------5----|
E:----1--1---3/5----------------|----------------------|

Chorus (Heavier than before)

e:--------------|---------------|------------|-------------------|
B:--/10---------|---------8\6---|-6----------|--------------6/8\-|
G:--------------|---------------|------------|--5/7--------------|
D:--------------|---------------|------------|-------------------|
A:--------------|---------------|------------|-------------------|
E:--------------|---------------|------------|-------------------|
                                  


e:--------------------|---------------|-------------------------|
B:-\6-----------11/13-|--11\10--------|--11\10---------10/15----|
G:--------------------|---------------|-------------------------|
D:--------------------|---------------|-------------------------|
A:--------------------|---------------|-------------------------|
E:--------------------|---------------|-------------------------|


                                  
e:------------------|-----------------|--------------|---------------------|
B:--15------15------|---------13------|-/10----------|----------10---------|
G:------------------|--/14--------14--|----------10--|---9/10--------10----|
D:------------------|-----------------|--------------|---------------------|
A:------------------|-----------------|--------------|---------------------|
E:------------------|-----------------|--------------|---------------------|

                                  

e:-------------------|-------------------|---------|
B:----------8--\6----|--------10---------|---------|
G:--9/10-------------|--9/10-------10----|--(10)---|
D:-------------------|-------------------|---------|
A:-------------------|-------------------|---------|
E:-------------------|-------------------|---------|

============================================================================
                         Guitar II part
============================================================================

e:----------------------------------|
B:---8/10------8/10-----------------|
G:----------------------------------|
D:----------------------------------|
A:----------------------------------|
E:----------------------------------|
                                           
e:------------------------------|--------------------|
B:--- 13/15-----15\13-----------|--------------13----|
G:-------------------------14---|-----------------14-|
D:------------------------------|--------------------|
A:------------------------------|--------------------|
E:-------------- ---------------|--------------------|


e:-----------------------------------------|--------------------|
B:-----------------------------------------|----------------13--|
G:--10-------------------------------------|---12/14------------|
D:-----------------------------------------|--------------------|
A:-----------------------------------------|--------------------|
E:-----------------------------------------|--------------------|


e:-----------------------------------------------------|
B-----------------------------13/15--------------------|
G:-----------------------------------------------------|
D:-----------------------------------------------------|
A:-----------------------------------------------------|
E:-----------------------------------------------------|

  
e:-----------------------------------------|--------------------|
B:--------13/15----------------------------|---13---------------|
G:-----------------------------------------|-----------------14-|
D:-----------------------------------------|--------------------|
A:-----------------------------------------|--------------------|
E:-----------------------------------------|--------------------|

      
         
e:-----------------------8/10\8----------------------|
B:---------------------------------------------------|
G:---------------------------------------------------|
D:---------------------------------------------------|
A:---------------------------------------------------|
E:---------------------------------------------------|

                                            
e:--------------------------------------------10----------------|
B:--------------------------------------------------13-10/11/10-|
G:--------------------------------------------------------------|
D:--------------------------------------------------------------|
A:--------------------------------------------------------------|
E:--------------------------------------------------------------|


e:-----------------------------------------------------|
B:---------------------------------------------10/6----|
G:-----------------------------------------------------|
D:-----------------------------------------------------|
A:-----------------------------------------------------|
E:-----------------------------------------------------|

   Verse:
                          
e:--------|-10----10------------------------------------|
B:---10---|-----------10/13\11\10h11p10\6\3-------------|
G:--------|----------------------------------3----------|
D:--------|---------------------------------------------|
A:--------|---------------------------------------------|
E:--------|---------------------------------------------|
                         
e:------------------------------------------------------|
B:-----------------10/13\11\10\6------------------------|
G:------------------------------------------------------|
D:------------------------------------------------------|
A:------------------------------------------------------|
E:------------------------------------------------------|

                                                  
e:13/10----------------------10/11\10\6-------------------------|
B:--------------------------------------------------------6/8\6-|
G:--------------------------------------------------------------|
D:--------------------------------------------------------------|
A:--------------------------------------------------------------|
E:--------------------------------------------------------------|          

                                            
e:----------------|------------------------------------|
B:----------------|---------/10------------------------|
G:--10------------|-----------------------10-----(10)--|
D:----------------|------------------------------------|
A:----------------|------------------------------------|
E:----------------|------------------------------------|

x   =  palm mute
h   =  hammer-on
p   =  pull-off
~   =  vibrato
/   =  slide up
\   =  slide down


Tap to rate this tab
# A B C D E F G H I J K L M N O P Q R S T U V W X Y Z