Song name
# A B C D E F G H I J K L M N O P Q R S T U V W X Y Z

Red Hot Chili Peppers - No Head No Backstage Pass tab

|--6h8--6-5h6--5-3h5--3-2/3----6h8--6-5h6--5-3h5--3-2/3-----------|
|----------------------------5---------------------------5\2--2-2-|
|-----------------------------------------------------------------|
|-----------------------------------------------------------------|
|-----------------------------------------------------------------|
|-----------------------------------------------------------------|

|--------------------------------------|
|--------------------------------------|
|--------------------------------------|
|--7-7-7-7-7-7-7/------10-10-10-10-10--|
|--x-x-x-x-x-x-x--------x--x--x--x--x--|
|--5-5-5-5-5-5-5-------/8--8--8--8--8--|

|------------------------------------------|
|------------------------------------------|
|------------------------------------------|
|--7\-6-6/-7\-7-6-6/-7-7\-6-6/-7-7\-6-6/-7-|
|--x--x-x--x--x-x-x--x-x--x-x--x-x--x-x--x-|
|--5\-4-4/-5\-5-4-4/-5-5\-4-4/-5-5\-4-4/-5-|
Tap to rate this tab
# A B C D E F G H I J K L M N O P Q R S T U V W X Y Z