Song name
# A B C D E F G H I J K L M N O P Q R S T U V W X Y Z

Red Hot Chili Peppers - My Friends tab

-------------------------------------------------------------------------------
			     My Friends - Red Hot Chili Peppers
-------------------------------------------------------------------------------
Tabbed by: J.S.L
Email: jonas.lindstroem@yahoo.se

Tuning:

e|-----0-1---------------0-(0)-----0-1-----------------------0-(0)-----------|
B|-3-3-----3-3-(3)-----0---------------3-3---1-3-3-(3)-----0-----------------|
G|-----------------------------------------2---------------------------------|
D|---------------------------------------------------------------------------|
A|---------------------------------------------------------------------------|
E|---------------------------------------------------------------------------|

e|-0-2-5-5-7----------------0------------------------------------------------|
B|-----------6-(6)--------------3~~---------1--------------------------------|
G|---------------------2-2--------------2-2---(0)----------------------------|
D|---------------------------------------------------------------------------|
A|---------------------------------------------------------------------------|
E|---------------------------------------------------------------------------|




************************************

| /   slide up
| \   slide down
| h   hammer-on
| p   pull-off
| ~   vibrato
| +   harmonic
| x   Mute note
| b   Bend
| pb  Pre-bend
| br  Bend release
| pbr Pre-bend release
| brb Bend release bend

************************************
Tap to rate this tab
 
# A B C D E F G H I J K L M N O P Q R S T U V W X Y Z