Song name
# A B C D E F G H I J K L M N O P Q R S T U V W X Y Z

Red Hot Chili Peppers - Easily tab

                          EASILY
                    As recorded by The Red Hot Chili Peppers
                      (From the 1999 Album CALIFORNICATION)

Words and Music by Anthony Kiedis, Flea, John Fruciante and Chad Smith
Arranged by The Red Hot Chili Peppers

Gtr I (E A D G B E) - 'Untitled'
Gtr II (E A D G B E) - 'Untitled'
Gtr III (E A D G B E) - 'Untitled'

 Intro
  Moderately Fast Q=122
  Am                                D5      Dm           G5
 4/4
  Gtr I
  E. S E. S a    +S  +S     +S  S E E   +E  E E S S S E. E S S
|-0--0-0--0---------------------------|-----1-1---1------------|
|-1--1-1--1-------------------------3-|-(3)-3-3-3-3-3----3-3-3-|
|-2--2-2--2-2b3==(2)r(2)b3==(2)r2p0-2-|-(2)-2-2-2-2-2p0--0-0-0-|
|-2--2-2--2-------------------------0-|-(0)-0-0-0-0-0----0-0-0-|
|-0--0-0--0---------------------------|------------------------|
|-------------------------------------|------------------------|


                                                     Verse
  F           C     Am                                Am            Dm
  Q  E. S S S E S S E   +E  E S E S S S E S S S S     Q  E. S E E E E
|-----------------0---|---------------------------||--0--0--0-0-0-0-1-|
|-1--1--1-1-0-1---1-1-|-(1)-1-1-1-1-1-1-1-1-1-1-1-||o-1--1--1-1-1-1-3-|
|-2--2--2-2-0-0-0---2-|-(2)-2-2-2-2-2-2-2-2-2-2-2-||--2--2--2-2-2-2-2-|
|-3--3--3-3-0-2-2---2-|-(2)-2-2-2-2-2-2-2-2-2-2-2-||--2--2--2-2-2-2-0-|
|----3--3-3---------0-|-(0)-0-0-0-0-0-0-0-0-0-0-0-||o-0--0--0-0-0-0---|
|---------------------|---------------------------||------------------|


                            F         C   Am
  +E  E E S S S S E E S S   Q  E. S E E E E   +E  E S E S S S S S S S S S
|-(1)-0-1-0-0-1-1-0-0-----|-1-----1-------0-|-(0)-0-0-0-0-0-0-0-0-0-0-0-0--|
|-(3)-3-3-3-3-3-3-3-3-3-3-|-1--1--1-1-1---1-|-(1)-1-1-1-1-1-1-1-1-1-1-1-1--|
|-(2)-2-2-2-2-2-2-2-2-2-2-|-2--2--2-2-0---2-|-(2)-2-2-2-2-2-2-2-2-2-2-2-2--|
|-(0)-0-0-0-0-0-0-0-0-0-0-|-3--3--3-3-2---2-|-(2)-2-2-2-2-2-2-2-2-2-2-2-2--|
|-------------------------|---------------0-|-(0)-0-0-0-0-0-0-0-0-0-0-0-0--|
|-------------------------|-----------------|------------------------------|


  Am            Dm                            F         C   Am
  Q  E. S E E E E   +E  E E S S S S E E S S   Q  E. S E E E E
|-0--0--0-0-0-0-1-|-(1)-0-1-0-0-1-1-0-0-----|-1-----1-------0-|
|-1--1--1-1-1-1-3-|-(3)-3-3-3-3-3-3-3-3-3-3-|-1--1--1-1-1---1-|
|-2--2--2-2-2-2-2-|-(2)-2-2-2-2-2-2-2-2-2-2-|-2--2--2-2-0---2-|
|-2--2--2-2-2-2-0-|-(0)-0-0-0-0-0-0-0-0-0-0-|-3--3--3-3-2---2-|
|-0--0--0-0-0-0---|-------------------------|---------------0-|
|-----------------|-------------------------|-----------------|


                                Am            Dm
  +E  E S E S S S S S S S S S   Q  E. S E E E E   +E  E E S S S S E E S S
|-(0)-0-0-0-0-0-0-0-0-0-0-0-0-|-0--0--0-0-0-0-1-|-(1)-0-1-0-0-1-1-0-0------|
|-(1)-1-1-1-1-1-1-1-1-1-1-1-1-|-1--1--1-1-1-1-3-|-(3)-3-3-3-3-3-3-3-3-3-3--|
|-(2)-2-2-2-2-2-2-2-2-2-2-2-2-|-2--2--2-2-2-2-2-|-(2)-2-2-2-2-2-2-2-2-2-2--|
|-(2)-2-2-2-2-2-2-2-2-2-2-2-2-|-2--2--2-2-2-2-0-|-(0)-0-0-0-0-0-0-0-0-0-0--|
|-(0)-0-0-0-0-0-0-0-0-0-0-0-0-|-0--0--0-0-0-0---|--------------------------|
|-----------------------------|-----------------|--------------------------|


  F         C   Am
  Q  E. S E E E E   +E  E S E S S S S S S S S S
|-1-----1-------0-|-(0)-0-0-0-0-0-0-0-0-0-0-0-0-|
|-1--1--1-1-1---1-|-(1)-1-1-1-1-1-1-1-1-1-1-1-1-|
|-2--2--2-2-0---2-|-(2)-2-2-2-2-2-2-2-2-2-2-2-2-|
|-3--3--3-3-2---2-|-(2)-2-2-2-2-2-2-2-2-2-2-2-2-|
|---------------0-|-(0)-0-0-0-0-0-0-0-0-0-0-0-0-|
|-----------------|-----------------------------|


                Dm                            Fsus2      C/Am
  Q  E. S E E E E   +E  E E S S S S E E S S   Q  E S S E E Q
|-0--0--0-0-0-0-1-|-(1)-1-1-0-0-1-1-0-1-----|-1--1-1-1-1-3-0--|
|-1--1--1-1-1-1-3-|-(3)-3-3-3-3-3-3-3-3-3-3-|-1--1-1-1-1-1-1--|
|-2--2--2-2-2-2-2-|-(2)-2-2-2-2-2-2-2-2-2-2-|-0--0-0-0-0-0-2--|
|-2--2--2-2-2-2-0-|-(0)-0-0-0-0-0-0-0-0-0-0-|-3--3-3-3-3-2-2--|
|-0--0--0-0-0-0---|-------------------------|--------------0--|
|-----------------|-------------------------|-----------------|


                            Chorus
                          $
                             C
  +E  E S E S S S E E.  S     S  S  S  S  S  S  S  S  S  S  S  S  S  S  S  S
|-(0)-0-0-0-0-0-0-0-0---8-||--8--8--8--8--8--8--8--8--8--8--8--8--8--8--8--8--|
|-(1)-1-1-0-1-1-1-1-1---8-||--8--8--8--8--8--8--8--8--8--8--8--8--8--8--8--8--|
|-(2)-2-2-2-2-2-2-2-2---9-||--9--9--9--9--9--9--9--9--9--9--9--9--9--9--9--9--|
|-(2)-2-2-2-2-2-2-2-2--10-||-10-10-10-10-10-10-10-10-10-10-10-10-10-10-10-10--|
|-(0)-0-0-0-0-0-0-0-0-----||--x--x--x--x--x--x--x--x--x--x--x--x--x--x--x--x--|
|-------------------------||--8--8--8--8--8--8--8--8--8--8--8--8--8--8--8--8--|


  G               F
  S S S S S S S S S S S S S S S S
|-3-3-3-3-3-3-3-3-1-1-1-1-1-1-1-1-|
|-3-3-3-3-3-3-3-3-1-1-1-1-1-1-1-1-|
|-4-4-4-4-4-4-4-4-2-2-2-2-2-2-2-2-|
|-5-5-5-5-5-5-5-5-3-3-3-3-3-3-3-3-|
|-x-x-x-x-x-x-x-x-x-x-x-x-x-x-x-x-|
|-3-3-3-3-3-3-3-3-1-1-1-1-1-1-1-1-|


  C
    S  S  S  S  S  S  S  S  S  S  S  S  S  S  S  S
|--/8--8--8--8--8--8--8--8--8--8--8--8--8--8--8--8-|
|--/8--8--8--8--8--8--8--8--8--8--8--8--8--8--8--8-|
|--/9--9--9--9--9--9--9--9--9--9--9--9--9--9--9--9-|
|-/10-10-10-10-10-10-10-10-10-10-10-10-10-10-10-10-|
|--/x--x--x--x--x--x--x--x--x--x--x--x--x--x--x--x-|
|--/8--8--8--8--8--8--8--8--8--8--8--8--8--8--8--8-|


  G               F                 Am
  S S S S S S S S S S S S S S S S   S S S S S S S S S S S S S S S S
|-3-3-3-3-3-3-3-3-1-1-1-1-1-1-1-1-|-5-5-5-5-5-5-5-5-5-5-5-5-5-5-5-5-|
|-3-3-3-3-3-3-3-3-1-1-1-1-1-1-1-1-|-5-5-5-5-5-5-5-5-5-5-5-5-5-5-5-5-|
|-4-4-4-4-4-4-4-4-2-2-2-2-2-2-2-2-|-5-5-5-5-5-5-5-5-5-5-5-5-5-5-5-5-|
|-5-5-5-5-5-5-5-5-3-3-3-3-3-3-3-3-|-7-7-7-7-7-7-7-7-7-7-7-7-7-7-7-7-|
|-x-x-x-x-x-x-x-x-x-x-x-x-x-x-x-x-|-x-x-x-x-x-x-x-x-x-x-x-x-x-x-x-x-|
|-3-3-3-3-3-3-3-3-1-1-1-1-1-1-1-1-|-5-5-5-5-5-5-5-5-5-5-5-5-5-5-5-5-|


  G               F                 Am
  S S S S S S S S S S S S S S S S   S S S S S S S S S S S S S S S S
|-3-3-3-3-3-3-3-3-1-1-1-1-1-1-1-1-|-5-5-5-5-5-5-5-5-5-5-5-5-5-5-5-5-|
|-3-3-3-3-3-3-3-3-1-1-1-1-1-1-1-1-|-5-5-5-5-5-5-5-5-5-5-5-5-5-5-5-5-|
|-4-4-4-4-4-4-4-4-2-2-2-2-2-2-2-2-|-5-5-5-5-5-5-5-5-5-5-5-5-5-5-5-5-|
|-5-5-5-5-5-5-5-5-3-3-3-3-3-3-3-3-|-7-7-7-7-7-7-7-7-7-7-7-7-7-7-7-7-|
|-x-x-x-x-x-x-x-x-x-x-x-x-x-x-x-x-|-x-x-x-x-x-x-x-x-x-x-x-x-x-x-x-x-|
|-3-3-3-3-3-3-3-3-1-1-1-1-1-1-1-1-|-5-5-5-5-5-5-5-5-5-5-5-5-5-5-5-5-|


  1.                                  2.,3.
  G               F                   G
  S S S S S S S S S S S S S S S S     S S S S S S S S S S S S S S S S
|-3-3-3-3-3-3-3-3-1-1-1-1-1-1-0-0--||-3-3-3-3-3-3-3-3-1-1-1-1-1-1-1-1-||
|-3-3-3-3-3-3-3-3-1-1-1-1-1-1-1-1-o||-3-3-3-3-3-3-3-3-1-1-1-1-1-1-1-1-||
|-4-4-4-4-4-4-4-4-2-2-2-2-2-2-2-2--||-4-4-4-4-4-4-4-4-2-2-2-2-2-2-2-2-||
|-5-5-5-5-5-5-5-5-3-3-3-3-3-3-2-2--||-5-5-5-5-5-5-5-5-3-3-3-3-3-3-3-3-||
|-x-x-x-x-x-x-x-x-x-x-x-x-x-x-0-0-o||-x-x-x-x-x-x-x-x-x-x-x-x-x-x-x-x-||
|-3-3-3-3-3-3-3-3-1-1-1-1-1-1------||-3-3-3-3-3-3-3-3-1-1-1-1-1-1-1-1-||


 Chorus
  C
   S  S  S  S  S  S  S  S  S  S  S  S  S  S  S  S
|--8--8--8--8--8--8--8--8--8--8--8--8--8--8--8--8-|
|--8--8--8--8--8--8--8--8--8--8--8--8--8--8--8--8-|
|--9--9--9--9--9--9--9--9--9--9--9--9--9--9--9--9-|
|-10-10-10-10-10-10-10-10-10-10-10-10-10-10-10-10-|
|--x--x--x--x--x--x--x--x--x--x--x--x--x--x--x--x-|
|--8--8--8--8--8--8--8--8--8--8--8--8--8--8--8--8-|


  G
  S S S S S S S S S S S S S S S S
|-3-3-3-3-3-3-3-3-1-1-1-1-1-1-1-1-|
|-3-3-3-3-3-3-3-3-1-1-1-1-1-1-1-1-|
|-4-4-4-4-4-4-4-4-2-2-2-2-2-2-2-2-|
|-5-5-5-5-5-5-5-5-3-3-3-3-3-3-3-3-|
|-x-x-x-x-x-x-x-x-x-x-x-x-x-x-x-x-|
|-3-3-3-3-3-3-3-3-1-1-1-1-1-1-1-1-|


  C
    S  S  S  S  S  S  S  S  S  S  S  S  S  S  S  S
|--/8--8--8--8--8--8--8--8--8--8--8--8--8--8--8--8-|
|--/8--8--8--8--8--8--8--8--8--8--8--8--8--8--8--8-|
|--/9--9--9--9--9--9--9--9--9--9--9--9--9--9--9--9-|
|-/10-10-10-10-10-10-10-10-10-10-10-10-10-10-10-10-|
|--/x--x--x--x--x--x--x--x--x--x--x--x--x--x--x--x-|
|--/8--8--8--8--8--8--8--8--8--8--8--8--8--8--8--8-|


  G               F
  S S S S S S S S S S S S S S S S
|-3-3-3-3-3-3-3-3-1-1-1-1-1-1-1-1-|
|-3-3-3-3-3-3-3-3-1-1-1-1-1-1-1-1-|
|-4-4-4-4-4-4-4-4-2-2-2-2-2-2-2-2-|
|-5-5-5-5-5-5-5-5-3-3-3-3-3-3-3-3-|
|-x-x-x-x-x-x-x-x-x-x-x-x-x-x-x-x-|
|-3-3-3-3-3-3-3-3-1-1-1-1-1-1-1-1-|


  Am                                G               F
  S S S S S S S S S S S S S S S S   S S S S S S S S S S S S S S S S
|-5-5-5-5-5-5-5-5-5-5-5-5-5-5-5-5-|-3-3-3-3-3-3-3-3-1-1-1-1-1-1-1-1-|
|-5-5-5-5-5-5-5-5-5-5-5-5-5-5-5-5-|-3-3-3-3-3-3-3-3-1-1-1-1-1-1-1-1-|
|-5-5-5-5-5-5-5-5-5-5-5-5-5-5-5-5-|-4-4-4-4-4-4-4-4-2-2-2-2-2-2-2-2-|
|-7-7-7-7-7-7-7-7-7-7-7-7-7-7-7-7-|-5-5-5-5-5-5-5-5-3-3-3-3-3-3-3-3-|
|-x-x-x-x-x-x-x-x-x-x-x-x-x-x-x-x-|-x-x-x-x-x-x-x-x-x-x-x-x-x-x-x-x-|
|-5-5-5-5-5-5-5-5-5-5-5-5-5-5-5-5-|-3-3-3-3-3-3-3-3-1-1-1-1-1-1-1-1-|


                                                           To Coda
  Am                                G               F
  S S S S S S S S S S S S S S S S   S S S S S S S S S S S S S S S S
|-5-5-5-5-5-5-5-5-5-5-5-5-5-5-5-5-|-3-3-3-3-3-3-3-3-1-1-1-1-1-1-0-0-||
|-5-5-5-5-5-5-5-5-5-5-5-5-5-5-5-5-|-3-3-3-3-3-3-3-3-1-1-1-1-1-1-1-1-||
|-5-5-5-5-5-5-5-5-5-5-5-5-5-5-5-5-|-4-4-4-4-4-4-4-4-2-2-2-2-2-2-2-2-||
|-7-7-7-7-7-7-7-7-7-7-7-7-7-7-7-7-|-5-5-5-5-5-5-5-5-3-3-3-3-3-3-2-2-||
|-x-x-x-x-x-x-x-x-x-x-x-x-x-x-x-x-|-x-x-x-x-x-x-x-x-x-x-x-x-x-x-0-0-||
|-5-5-5-5-5-5-5-5-5-5-5-5-5-5-5-5-|-3-3-3-3-3-3-3-3-1-1-1-1-1-1-----||


 Guitar Solo
  Am                 Dm
  Gtr I
   Q  E. S   E   E E   E     +E        E    E   S S   S  S E E   S   S
|--0--0--0---0---0-0---1--|--(1)-------0----1---0-0---1--1-0-0---------|
|--1--1--1---1---1-1---3--|--(3)-------3----3---3-3---3--3-3-3---3---3-|
|--2--2--2---2---2-2---2--|--(2)-------2----2---2-2---2--2-2-2---2---2-|
|--2--2--2---2---2-2---0--|--(0)-------0----0---0-0---0--0-0-0---0---0-|
|--0--0--0---0---0-0------|--------------------------------------------|
|-------------------------|--------------------------------------------|
|
| Gtr II
|  H        +E   Q     E      E       +E    E   E    +Q.        +E
|-12-------(12)-10----12--|-(12)b15==(12)r=12--10---(10)-------(10)\---|
|--------------------(12)-|-(12)-----(12)-(12)-------------------------|
|-------------------------|--------------------------------------------|
|-------------------------|--------------------------------------------|
|-------------------------|--------------------------------------------|
|-------------------------|--------------------------------------------|


  F                     C        Am
  Q   E.     S  E         E  E    E    +E  E S E S S S S S S S S S
|-1----------1--------------------0--|-(0)-0-0-0-0-0-0-0-0-0-0-0-0---|
|-1---1------1--1---------1-------1--|-(1)-1-1-1-1-1-1-1-1-1-1-1-1---|
|-2---2------2--2---------0-------2--|-(2)-2-2-2-2-2-2-2-2-2-2-2-2---|
|-3---3------3--3---------2-------2--|-(2)-2-2-2-2-2-2-2-2-2-2-2-2---|
|---------------------------------0--|-(0)-0-0-0-0-0-0-0-0-0-0-0-0---|
|------------------------------------|-------------------------------|
|
| Q.     +E     e  a     +E  E   +E    +W
|-8------(8)h==10-10b12-(10)-7b8-(7)-|-(7)---------------------------|
|----------------------------7b8-(7)-|-(7)---------------------------|
|------------------------------------|-------------------------------|
|------------------------------------|-------------------------------|
|------------------------------------|-------------------------------|
|------------------------------------|-------------------------------|


  Am              Dm
  Q  E. S  E  E E E   +E       E   E  S S S S E  E   S     S
|-0--0--0--0--0-0-1-|-(1)------0---1--0-0-1-1-0--0-----------|
|-1--1--1--1--1-1-3-|-(3)------3---3--3-3-3-3-3--3---3-----3-|
|-2--2--2--2--2-2-2-|-(2)------2---2--2-2-2-2-2--2---2-----2-|
|-2--2--2--2--2-2-0-|-(0)------0---0--0-0-0-0-0--0---0-----0-|
|-0--0--0--0--0-0---|----------------------------------------|
|-------------------|----------------------------------------|
|
| ~~~~~~~~~~~~
| H       +E  Q   E   +E      +E  +H            +E   E
|-8-------(8)-7---8-|-(8)b10==(8)r(8)-----------(8)-10b12====|
|-------------------|----------------------------------------|
|-------------------|----------------------------------------|
|-------------------|----------------------------------------|
|-------------------|----------------------------------------|
|-------------------|----------------------------------------|


  F                C   Am
    Q   E.    S  E E E E     +E  E S E S S S S S S S S S
|---1---------1--------0---|-(0)-0-0-0-0-0-0-0-0-0-0-0-0-||
|---1---1-----1--1-1---1---|-(1)-1-1-1-1-1-1-1-1-1-1-1-1-||
|---2---2-----2--2-0---2---|-(2)-2-2-2-2-2-2-2-2-2-2-2-2-||
|---3---3-----3--3-2---2---|-(2)-2-2-2-2-2-2-2-2-2-2-2-2-||
|----------------------0---|-(0)-0-0-0-0-0-0-0-0-0-0-0-0-||
|--------------------------|-----------------------------||
|
|  +Q.      E    E Q   E     +W
|-(10)-----10r==10-7---7b8-|-(7)-------------------------||
|--------------------------|-----------------------------||
|--------------------------|-----------------------------||
|--------------------------|-----------------------------||
|--------------------------|-----------------------------||
|--------------------------|-----------------------------||


 Verse
  Am              Dm
  Gtr I
   Q   E. S E E E E   +E  E E S S S S E E S S
|--0---0--0-0-0-0-1-|-(1)-0-1-0-0-1-1-0-0-----|
|--1---1--1-1-1-1-3-|-(3)-3-3-3-3-3-3-3-3-3-3-|
|--2---2--2-2-2-2-2-|-(2)-2-2-2-2-2-2-2-2-2-2-|
|--2---2--2-2-2-2-0-|-(0)-0-0-0-0-0-0-0-0-0-0-|
|--0---0--0-0-0-0---|-------------------------|
|-------------------|-------------------------|
|
| Gtr II
|  >
| +H        H          W
|-(7)---------------|-------------------------|
|-------------------|-------------------------|
|-------------------|-------------------------|
|-------------------|-------------------------|
|-------------------|-------------------------|
|-------------------|-------------------------|


  F         C   Am
  Q  E. S E E E E   +E  E S E S S S S S S S S S
|-1-----1-------0-|-(0)-0-0-0-0-0-0-0-0-0-0-0-0--|
|-1--1--1-1-1---1-|-(1)-1-1-1-1-1-1-1-1-1-1-1-1--|
|-2--2--2-2-0---2-|-(2)-2-2-2-2-2-2-2-2-2-2-2-2--|
|-3--3--3-3-2---2-|-(2)-2-2-2-2-2-2-2-2-2-2-2-2--|
|---------------0-|-(0)-0-0-0-0-0-0-0-0-0-0-0-0--|
|-----------------|------------------------------|
|
| W                  W
|-----------------|------------------------------|
|-----------------|------------------------------|
|-----------------|------------------------------|
|-----------------|------------------------------|
|-----------------|------------------------------|
|-----------------|------------------------------|


                Dm
  Gtr I
  Q  E. S E E E E   +E  E E S S S S E E S S
|-0--0--0-0-0-0-1-|-(1)-1-1-0-0-1-1-0-1-----|
|-1--1--1-1-1-1-3-|-(3)-3-3-3-3-3-3-3-3-3-3-|
|-2--2--2-2-2-2-2-|-(2)-2-2-2-2-2-2-2-2-2-2-|
|-2--2--2-2-2-2-0-|-(0)-0-0-0-0-0-0-0-0-0-0-|
|-0--0--0-0-0-0---|-------------------------|
|-----------------|-------------------------|


                             D.S. al Coda
  Fsus2      C/Am
  Q  E S S E E Q    +E  E S E S S S E E.  S
|-1--1-1-1-1-3-0--|-(0)-0-0-0-0-0-0-0-0---8-||
|-1--1-1-1-1-1-1--|-(1)-1-1-0-1-1-1-1-1---8-||
|-0--0-0-0-0-0-2--|-(2)-2-2-2-2-2-2-2-2---9-||
|-3--3-3-3-3-2-2--|-(2)-2-2-2-2-2-2-2-2--10-||
|--------------0--|-(0)-0-0-0-0-0-0-0-0-----||
|-----------------|-------------------------||


 Outro
  &
  C
  Gtr I
   S  S  S  S  S  S  S  S  S  S  S  S  S  S  S  S
|--8--8--8--8--8--8--8--8--8--8--8--8--8--8--8--8-|
|--8--8--8--8--8--8--8--8--8--8--8--8--8--8--8--8-|
|--9--9--9--9--9--9--9--9--9--9--9--9--9--9--9--9-|
|-10-10-10-10-10-10-10-10-10-10-10-10-10-10-10-10-|
|--x--x--x--x--x--x--x--x--x--x--x--x--x--x--x--x-|
|--8--8--8--8--8--8--8--8--8--8--8--8--8--8--8--8-|
|
| Gtr II
|  Q           E     E     E     E     Q
|-15----------13----12----13----12----------------|
|-------------------------------------13----------|
|-------------------------------------------------|
|-------------------------------------------------|
|-------------------------------------------------|
|-------------------------------------------------|


  G                 F
   S S S S  S S S S  S S S S S S S S
|--3-3-3-3--3-3-3-3--1-1-1-1-1-1-1-1-|
|--3-3-3-3--3-3-3-3--1-1-1-1-1-1-1-1-|
|--4-4-4-4--4-4-4-4--2-2-2-2-2-2-2-2-|
|--5-5-5-5--5-5-5-5--3-3-3-3-3-3-3-3-|
|--x-x-x-x--x-x-x-x--x-x-x-x-x-x-x-x-|
|--3-3-3-3--3-3-3-3--1-1-1-1-1-1-1-1-|
|
|  Q        Q        H
|----------12------------------------|
|-12----------------13---------------|
|------------------------------------|
|------------------------------------|
|------------------------------------|
|------------------------------------|


  C
    S  S  S  S  S  S  S  S  S  S  S  S  S  S  S  S
|--/8--8--8--8--8--8--8--8--8--8--8--8--8--8--8--8-|
|--/8--8--8--8--8--8--8--8--8--8--8--8--8--8--8--8-|
|--/9--9--9--9--9--9--9--9--9--9--9--9--9--9--9--9-|
|-/10-10-10-10-10-10-10-10-10-10-10-10-10-10-10-10-|
|--/x--x--x--x--x--x--x--x--x--x--x--x--x--x--x--x-|
|--/8--8--8--8--8--8--8--8--8--8--8--8--8--8--8--8-|
|
|   Q           E     E     E     E     Q
|--15----------13----12----13----12----------------|
|--------------------------------------13----------|
|--------------------------------------------------|
|--------------------------------------------------|
|--------------------------------------------------|
|--------------------------------------------------|


  G                 F
   S S S S  S S S S  S S S S S S S S
|--3-3-3-3--3-3-3-3--1-1-1-1-1-1-1-1-|
|--3-3-3-3--3-3-3-3--1-1-1-1-1-1-1-1-|
|--4-4-4-4--4-4-4-4--2-2-2-2-2-2-2-2-|
|--5-5-5-5--5-5-5-5--3-3-3-3-3-3-3-3-|
|--x-x-x-x--x-x-x-x--x-x-x-x-x-x-x-x-|
|--3-3-3-3--3-3-3-3--1-1-1-1-1-1-1-1-|
|
|  Q        Q        H
|----------13------------------------|
|-12----------------13---------------|
|------------------------------------|
|------------------------------------|
|------------------------------------|
|------------------------------------|


  Am
  Gtr I
        S  S S S  S S  S S  S S S S  S S S S
|-------5--5-5-5--5-5--5-5--5-5-5-5--5-5-5-5-|
|-------5--5-5-5--5-5--5-5--5-5-5-5--5-5-5-5-|
|-------5--5-5-5--5-5--5-5--5-5-5-5--5-5-5-5-|
|-------7--7-7-7--7-7--7-7--7-7-7-7--7-7-7-7-|
|-------x--x-x-x--x-x--x-x--x-x-x-x--x-x-x-x-|
|-------5--5-5-5--5-5--5-5--5-5-5-5--5-5-5-5-|
|
| Gtr II
|       Q         E    E    Q        Q
|------17--------15--------15----------------|
|---------------------17------------17-------|
|--------------------------------------------|
|--------------------------------------------|
|--------------------------------------------|
|--------------------------------------------|
|
| Gtr III
| a    +W
|--------------------------------------------|
|--------------------------------------------|
|--------------------------------------------|
|-5b7==(5)-----------------------------------|
|--------------------------------------------|
|--------------------------------------------|


  G                     F
   S  S S S     S S S S  S  S S S  S  S  S  S
|--3--3-3-3-----3-3-3-3--1--1-1-1--1--1--1--1-|
|--3--3-3-3-----3-3-3-3--1--1-1-1--1--1--1--1-|
|--4--4-4-4-----4-4-4-4--2--2-2-2--2--2--2--2-|
|--5--5-5-5-----5-5-5-5--3--3-3-3--3--3--3--3-|
|--x--x-x-x-----x-x-x-x--x--x-x-x--x--x--x--x-|
|--3--3-3-3-----3-3-3-3--1--1-1-1--1--1--1--1-|
|
|  Q         a  Q        Q.              E
|-----------13h15-----------------------------|
|-15--------------------17--------------------|
|---------------------------------------------|
|---------------------------------------------|
|---------------------------------------------|
|---------------------------------------------|
|
| +H.                             +E    +E
|---------------------------------------------|
|---------------------------------------------|
|---------------------------------------------|
|-(5)-----------------------------(5)r==(5)---|
|---------------------------------------------|
|---------------------------------------------|


  Am                                      G                 F            Am
   S  S S S  S S  S S  S S S S  S S S S    S S S S  S S S S  S S S S S S S S
|--5--5-5-5--5-5--5-5--5-5-5-5--5-5-5-5-|--3-3-3-3--3-3-3-3--1-1-1-1-1-1-0-0-|
|--5--5-5-5--5-5--5-5--5-5-5-5--5-5-5-5-|--3-3-3-3--3-3-3-3--1-1-1-1-1-1-1-1-|
|--5--5-5-5--5-5--5-5--5-5-5-5--5-5-5-5-|--4-4-4-4--4-4-4-4--2-2-2-2-2-2-2-2-|
|--7--7-7-7--7-7--7-7--7-7-7-7--7-7-7-7-|--5-5-5-5--5-5-5-5--3-3-3-3-3-3-2-2-|
|--x--x-x-x--x-x--x-x--x-x-x-x--x-x-x-x-|--x-x-x-x--x-x-x-x--x-x-x-x-x-x-0-0-|
|--5--5-5-5--5-5--5-5--5-5-5-5--5-5-5-5-|--3-3-3-3--3-3-3-3--1-1-1-1-1-1-----|
|
|  Q         E    E    Q        Q          Q        Q        H
|-17--------15--------15----------------|----------15------------------------|
|----------------17------------17-------|-15----------------17---------------|
|---------------------------------------|------------------------------------|
|---------------------------------------|------------------------------------|
|---------------------------------------|------------------------------------|
|---------------------------------------|------------------------------------|
|
| +W                                       W
|---------------------------------------|------------------------------------|
|---------------------------------------|------------------------------------|
|---------------------------------------|------------------------------------|
|-(5)-----------------------------------|------------------------------------|
|---------------------------------------|------------------------------------|
|---------------------------------------|------------------------------------|


  C
   S  S  S  S  S  S  S  S  S  S  S  S  S  S  S  S
|--8--8--8--8--8--8--8--8--8--8--8--8--8--8--8--8-|
|--8--8--8--8--8--8--8--8--8--8--8--8--8--8--8--8-|
|--9--9--9--9--9--9--9--9--9--9--9--9--9--9--9--9-|
|-10-10-10-10-10-10-10-10-10-10-10-10-10-10-10-10-|
|--x--x--x--x--x--x--x--x--x--x--x--x--x--x--x--x-|
|--8--8--8--8--8--8--8--8--8--8--8--8--8--8--8--8-|
|
|  Q           E     E     E     E     Q
|-15----------13----12----13----12----------------|
|-------------------------------------13----------|
|-------------------------------------------------|
|-------------------------------------------------|
|-------------------------------------------------|
|-------------------------------------------------|
|
|  ~~~~~~~~~~~~~~~~~~~~~~~~~~~~~~~~~~~~~~~~~~~~~~~~
|  W
|-------------------------------------------------|
|-------------------------------------------------|
|-------------------------------------------------|
|-14----------------------------------------------|
|-------------------------------------------------|
|-------------------------------------------------|


  G                   F
    S  S S S  S S S S  S S  S S  S S S S
|---3--3-3-3--3-3-3-3--1-1--1-1--1-1-1-1-|
|---3--3-3-3--3-3-3-3--1-1--1-1--1-1-1-1-|
|---4--4-4-4--4-4-4-4--2-2--2-2--2-2-2-2-|
|---5--5-5-5--5-5-5-5--3-3--3-3--3-3-3-3-|
|---x--x-x-x--x-x-x-x--x-x--x-x--x-x-x-x-|
|---3--3-3-3--3-3-3-3--1-1--1-1--1-1-1-1-|
|
|   Q         Q        H
|------------12--------------------------|
|--12-----------------13-----------------|
|----------------------------------------|
|----------------------------------------|
|----------------------------------------|
|----------------------------------------|
|
|~~~~~~
|  +H                  E    E    Q
|----------------------------------------|
|----------------------------------------|
|---------------------12s==14---14-------|
|-(14)-----------------------------------|
|----------------------------------------|
|----------------------------------------|


  C
    S   S  S  S  S  S  S  S  S  S  S  S  S  S  S  S
|--/8---8--8--8--8--8--8--8--8--8--8--8--8--8--8--8-|
|--/8---8--8--8--8--8--8--8--8--8--8--8--8--8--8--8-|
|--/9---9--9--9--9--9--9--9--9--9--9--9--9--9--9--9-|
|-/10--10-10-10-10-10-10-10-10-10-10-10-10-10-10-10-|
|--/x---x--x--x--x--x--x--x--x--x--x--x--x--x--x--x-|
|--/8---8--8--8--8--8--8--8--8--8--8--8--8--8--8--8-|
|
|   Q            E     E     E     E     Q
|--15-----------13----12----13----12----------------|
|---------------------------------------13----------|
|---------------------------------------------------|
|---------------------------------------------------|
|---------------------------------------------------|
|---------------------------------------------------|
|
|   ~~~~
|  +H.                                   E     E
|---------------------------------------------------|
|---------------------------------------13----------|
|-(14)----------------------------------------------|
|---------------------------------------------------|
|---------------------------------------------------|
|---------------------------------------------------|


         G                     F
           S  S S S   S  S S S  S S  S  S S S S S
|----------3--3-3-3---3--3-3-3--1-1--1--1-1-1-1-1--|
|----------3--3-3-3---3--3-3-3--1-1--1--1-1-1-1-1--|
|----------4--4-4-4---4--4-4-4--2-2--2--2-2-2-2-2--|
|----------5--5-5-5---5--5-5-5--3-3--3--3-3-3-3-3--|
|----------x--x-x-x---x--x-x-x--x-x--x--x-x-x-x-x--|
|----------3--3-3-3---3--3-3-3--1-1--1--1-1-1-1-1--|
|
|          Q          Q         H
|--------------------13----------------------------|
|---------12-------------------13------------------|
|--------------------------------------------------|
|--------------------------------------------------|
|--------------------------------------------------|
|--------------------------------------------------|
|
|                                    ~~~
|  a      +Q         +Q         E    Q.
|--------------------------------------------------|
|-15b17==(15)r======(15)-------12---13-------------|
|--------------------------------------------------|
|--------------------------------------------------|
|--------------------------------------------------|
|--------------------------------------------------|


  Am
    S  S S S  S S  S S  S S  S  S S S S S
|---5--5-5-5--5-5--5-5--5-5--5--5-5-5-5-5-|
|---5--5-5-5--5-5--5-5--5-5--5--5-5-5-5-5-|
|---5--5-5-5--5-5--5-5--5-5--5--5-5-5-5-5-|
|---7--7-7-7--7-7--7-7--7-7--7--7-7-7-7-7-|
|---x--x-x-x--x-x--x-x--x-x--x--x-x-x-x-x-|
|---5--5-5-5--5-5--5-5--5-5--5--5-5-5-5-5-|
|
|   Q         E    E    E    Q.
|--17--------15--------15-----------------|
|-----------------17--------17------------|
|-----------------------------------------|
|-----------------------------------------|
|-----------------------------------------|
|-----------------------------------------|
|
|   ~~~~
|  +W
|-----------------------------------------|
|-(13)------------------------------------|
|-----------------------------------------|
|-----------------------------------------|
|-----------------------------------------|
|-----------------------------------------|


  G                 F
   S S S S  S S S S  S S  S  S  S S  S S
|--3-3-3-3--3-3-3-3--1-1--1--1--1-1--1-1-|
|--3-3-3-3--3-3-3-3--1-1--1--1--1-1--1-1-|
|--4-4-4-4--4-4-4-4--2-2--2--2--2-2--2-2-|
|--5-5-5-5--5-5-5-5--3-3--3--3--3-3--3-3-|
|--x-x-x-x--x-x-x-x--x-x--x--x--x-x--x-x-|
|--3-3-3-3--3-3-3-3--1-1--1--1--1-1--1-1-|
|
|  Q        Q        E    Q.
|----------12-------15p==12--------------|
|-13-------------------------------------|
|----------------------------------------|
|----------------------------------------|
|----------------------------------------|
|----------------------------------------|
|
|                                    ~~
|  H                 E    E     E    E
|-------------------15---12---------12---|
|------------------------------13--------|
|----------------------------------------|
|----------------------------------------|
|----------------------------------------|
|----------------------------------------|


  Am
    S  S S S  S S  S S  S S  S S S S          S  S
|---5--5-5-5--5-5--5-5--5-5--5-5-5-5----------5--5-|
|---5--5-5-5--5-5--5-5--5-5--5-5-5-5----------5--5-|
|---5--5-5-5--5-5--5-5--5-5--5-5-5-5----------5--5-|
|---7--7-7-7--7-7--7-7--7-7--7-7-7-7----------7--7-|
|---x--x-x-x--x-x--x-x--x-x--x-x-x-x----------x--x-|
|---5--5-5-5--5-5--5-5--5-5--5-5-5-5----------5--5-|
|
|   Q         E    E    E    Q        a      +E
|--17--------15--------15------------17b19==(17)r==|
|-----------------17--------17---------------------|
|--------------------------------------------------|
|--------------------------------------------------|
|--------------------------------------------------|
|--------------------------------------------------|
|
|   ~~~~
|  +W
|-(12)---------------------------------------------|
|--------------------------------------------------|
|--------------------------------------------------|
|--------------------------------------------------|
|--------------------------------------------------|
|--------------------------------------------------|


  G                           F                 Am
   S     S   S  S  S S S S      S  S  S  S  S S  S S
|--3-----3---3--3--3-3-3-3------1--1--1--1--1-1--0-0-|
|--3-----3---3--3--3-3-3-3------1--1--1--1--1-1--1-1-|
|--4-----4---4--4--4-4-4-4------2--2--2--2--2-2--2-2-|
|--5-----5---5--5--5-5-5-5------3--3--3--3--3-3--2-2-|
|--x-----x---x--x--x-x-x-x------x--x--x--x--x-x--0-0-|
|--3-----3---3--3--3-3-3-3------1--1--1--1--1-1------|
|
|                                     ~~~
|  E         E     Q            E     Q.
|-17--------15-----------------15--------------------|
|-----------------17-----------------17--------------|
|----------------------------------------------------|
|----------------------------------------------------|
|----------------------------------------------------|
|----------------------------------------------------|
|
|  E        +Q.             a  +Q           E    E
|----------------------------------------------------|
|-15b17====(15)------------15r(15)---------13---12---|
|----------------------------------------------------|
|----------------------------------------------------|
|----------------------------------------------------|
|----------------------------------------------------|


  C
   S  S  S  S  S  S  S  S  S  S  S  S  S  S  S  S
|--8--8--8--8--8--8--8--8--8--8--8--8--8--8--8--8-|
|--8--8--8--8--8--8--8--8--8--8--8--8--8--8--8--8-|
|--9--9--9--9--9--9--9--9--9--9--9--9--9--9--9--9-|
|-10-10-10-10-10-10-10-10-10-10-10-10-10-10-10-10-|
|--x--x--x--x--x--x--x--x--x--x--x--x--x--x--x--x-|
|--8--8--8--8--8--8--8--8--8--8--8--8--8--8--8--8-|
|
|  Q           E     E     E     E     Q
|-15----------13----12----13----12----------------|
|-------------------------------------13----------|
|-------------------------------------------------|
|-------------------------------------------------|
|-------------------------------------------------|
|-------------------------------------------------|
|
|  ~~~~~~~~~~~~~~~~~~~~~~~~~~~~~~~~~~~~~~~~~~~~~~~~
|  W
|-------------------------------------------------|
|-13----------------------------------------------|
|-------------------------------------------------|
|-------------------------------------------------|
|-------------------------------------------------|
|-------------------------------------------------|


  G                   F
    S  S S S  S S S S  S S S S S S  S S
|---3--3-3-3--3-3-3-3--1-1-1-1-1-1--1-1-|
|---3--3-3-3--3-3-3-3--1-1-1-1-1-1--1-1-|
|---4--4-4-4--4-4-4-4--2-2-2-2-2-2--2-2-|
|---5--5-5-5--5-5-5-5--3-3-3-3-3-3--3-3-|
|---x--x-x-x--x-x-x-x--x-x-x-x-x-x--x-x-|
|---3--3-3-3--3-3-3-3--1-1-1-1-1-1--1-1-|
|
|   Q         Q        H
|------------12-------------------------|
|--12-----------------13----------------|
|---------------------------------------|
|---------------------------------------|
|---------------------------------------|
|---------------------------------------|
|
|~~~~~~
|  +H                  Q       E    E
|---------------------------------------|
|-(13)----------------------------------|
|----------------------------------12s==|
|---------------------------------------|
|---------------------------------------|
|---------------------------------------|


  C
    S  S  S  S  S   S  S  S  S  S  S  S  S  S  S  S
|--/8--8--8--8--8---8--8--8--8--8--8--8--8--8--8--8-|
|--/8--8--8--8--8---8--8--8--8--8--8--8--8--8--8--8-|
|--/9--9--9--9--9---9--9--9--9--9--9--9--9--9--9--9-|
|-/10-10-10-10-10--10-10-10-10-10-10-10-10-10-10-10-|
|--/x--x--x--x--x---x--x--x--x--x--x--x--x--x--x--x-|
|--/8--8--8--8--8---8--8--8--8--8--8--8--8--8--8--8-|
|
|   Q           E      E     E     E     Q
|---------------------------------------------------|
|--------------13-----12----13----12----------------|
|--12-----------------------------------12----------|
|---------------------------------------------------|
|---------------------------------------------------|
|---------------------------------------------------|
|
|   E     E    +H.
|---------------------------------------------------|
|---------------------------------------------------|
|---9-----9----(9)----------------------------------|
|---------------------------------------------------|
|---------------------------------------------------|
|---------------------------------------------------|


  G                  F
   S S  S S  S S S S  S  S S S S  S S S
|--3-3--3-3--3-3-3-3--1--1-1-1-1--1-1-1-|
|--3-3--3-3--3-3-3-3--1--1-1-1-1--1-1-1-|
|--4-4--4-4--4-4-4-4--2--2-2-2-2--2-2-2-|
|--5-5--5-5--5-5-5-5--3--3-3-3-3--3-3-3-|
|--x-x--x-x--x-x-x-x--x--x-x-x-x--x-x-x-|
|--3-3--3-3--3-3-3-3--1--1-1-1-1--1-1-1-|
|
|  E    E    Q        H
|---------------------------------------|
|---------------------------------------|
|---------------------------------------|
|-14---14s==10-------14-----------------|
|---------------------------------------|
|---------------------------------------|
|
|  E    E    E   E   +E    E   Q
|---------------------------------------|
|------------8--------------------------|
|--7h===9--------9---(9)---7---9\-------|
|---------------------------------------|
|---------------------------------------|
|---------------------------------------|


  Am
   S S S S  S S S S  S S  S S  S   S S S
|--5-5-5-5--5-5-5-5--5-5--5-5--5---5-5-5-|
|--5-5-5-5--5-5-5-5--5-5--5-5--5---5-5-5-|
|--5-5-5-5--5-5-5-5--5-5--5-5--5---5-5-5-|
|--7-7-7-7--7-7-7-7--7-7--7-7--7---7-7-7-|
|--x-x-x-x--x-x-x-x--x-x--x-x--x---x-x-x-|
|--5-5-5-5--5-5-5-5--5-5--5-5--5---5-5-5-|
|
|           ~~
|  Q        Q        E    E    Q
|-15s======17-------17---15--------------|
|-----------------------------17---------|
|----------------------------------------|
|----------------------------------------|
|----------------------------------------|
|----------------------------------------|
|
|  ~~~
|  H.                          E     E
|----------------------------------------|
|----------------------------------------|
|--5---------------------------7b9---7p==|
|----------------------------------------|
|----------------------------------------|
|----------------------------------------|


  G                   F
   S S  S S  S  S S S  S  S S S S S S S
|--3-3--3-3--3--3-3-3--1--1-1-1-1-1-1-1-|
|--3-3--3-3--3--3-3-3--1--1-1-1-1-1-1-1-|
|--4-4--4-4--4--4-4-4--2--2-2-2-2-2-2-2-|
|--5-5--5-5--5--5-5-5--3--3-3-3-3-3-3-3-|
|--x-x--x-x--x--x-x-x--x--x-x-x-x-x-x-x-|
|--3-3--3-3--3--3-3-3--1--1-1-1-1-1-1-1-|
|
|                      ~~~
|  Q         Q         Q.           E
|-----------15--------------------------|
|-15------------------17----------------|
|---------------------------------------|
|---------------------------------------|
|---------------------------------------|
|---------------------------------------|
|
|    ~~~~~~~~~~~
|  S E.     +H                  E   E
|---------------------------------------|
|-------------------------------8p==5---|
|--4h5------(5)-------------------------|
|---------------------------------------|
|---------------------------------------|
|---------------------------------------|


  Am
       S    S S S  S S  S S  S S  S S  S S S S
|------5----5-5-5--5-5--5-5--5-5--5-5--5-5-5-5-|
|------5----5-5-5--5-5--5-5--5-5--5-5--5-5-5-5-|
|------5----5-5-5--5-5--5-5--5-5--5-5--5-5-5-5-|
|------7----7-7-7--7-7--7-7--7-7--7-7--7-7-7-7-|
|------x----x-x-x--x-x--x-x--x-x--x-x--x-x-x-x-|
|------5----5-5-5--5-5--5-5--5-5--5-5--5-5-5-5-|
|
| a a  Q           E    E    E    E    Q
|-----17b19-------17---15---17---15------------|
|---x---------------------------------17-------|
|-x--------------------------------------------|
|----------------------------------------------|
|----------------------------------------------|
|----------------------------------------------|
|
|      ~~~~~
|     +H.                              Q
|----------------------------------------------|
|-----(5)--------------------------------------|
|----------------------------------------------|
|----------------------------------------------|
|----------------------------------------------|
|----------------------------------------------|


                      H.=H
    G                 F            Am    C6
     S S S S  S S S S  S S S S S S S S     W
|----3-3-3-3--3-3-3-3--1-1-1-1-1-1-0-0-|---------*|
|----3-3-3-3--3-3-3-3--1-1-1-1-1-1-1-1-|-^-1-----*|
|----4-4-4-4--4-4-4-4--2-2-2-2-2-2-2-2-|-^-2-----*|
|----5-5-5-5--5-5-5-5--3-3-3-3-3-3-2-2-|-^-2-----*|
|----x-x-x-x--x-x-x-x--x-x-x-x-x-x-0-0-|-^-x-----*|
|----3-3-3-3--3-3-3-3--1-1-1-1-1-1-----|-^-4-----*|
|
|                      ~~~~~~~~~~~~~~~~~~~~~~~
|    Q        Q        H                  +W
|------------15------------------------|---------*|
|---15----------------13---------------|-(13)----*|
|--------------------------------------|---------*|
|--------------------------------------|---------*|
|--------------------------------------|---------*|
|--------------------------------------|---------*|
|
| a  Q        Q        H                   W
|--------------------------------------|---------*|
|--------------------------------------|---------*|
|--------------------------------------|---------*|
|-5s=7s=======5s=======7---------------|---7-----*|
|--------------------------------------|---------*|
|--------------------------------------|---------*|


Duration Legend
---------------
W - whole; H - half; Q - quarter; E - 8th; S - 16th; T - 32nd; X - 64th; a - acciaccatura
+ - note tied to previous; . - note dotted; .. - note double dotted
Uncapitalized letters represent notes that are staccato (1/2 duration)
Irregular groupings are notated above the duration line
Duration letters will always appear directly above the note/fret number it represents the
duration for.  Duration letters with no fret number below them represent rests.  Multi-
bar rests are notated in the form Wxn, where n is the number of bars to rest for.  Low
melody durations appear below the staff

Tablature Legend
----------------
 h   - hammer-on
 p   - pull-off
 b   - bend
 pb  - pre-bend
 r   - bend release (if no number after the r, then release immediately)
 /\  - slide into or out of (from/to "nowhere")
 s   - legato slide
 S   - shift slide
  - natural harmonic
[n]  - artificial harmonic
n(n) - tapped harmonic
 ~   - vibrato
 tr  - trill
 T   - tap
 TP  - trem. picking
 PM  - palm muting
\n/  - tremolo bar dip; n = amount to dip
 \n  - tremolo bar down
 n/  - tremolo bar up
/n\  - tremolo bar inverted dip
 =   - hold bend; also acts as connecting device for hammers/pulls
 <>  - volume swell (louder/softer)
 x   - on rhythm slash represents muted slash
 o   - on rhythm slash represents single note slash

Misc Legend
-----------
 |  - bar
||  - double bar
||o - repeat start
o|| - repeat end
*|  - double bar (ending)
 :  - bar (freetime)
 $  - Segno
 &  - Coda
Tempo markers -  = BPM(8/16=s8/s16), where s8 = swing 8ths, s16 = swing 16ths
Tap to rate this tab
# A B C D E F G H I J K L M N O P Q R S T U V W X Y Z