Song name
# A B C D E F G H I J K L M N O P Q R S T U V W X Y Z

Red Hot Chili Peppers - Wet Sand tab

Hello everyone! I'm JohnGetonTop from youtube, and here is my tab for this awesome solo 
06)
It's all by ear. This is my first tab so be lenient. :)

b = BEND
h = HAMMER ON
p = PULL OFF


E|------------------------------------------------------------------|
A|------------------------------------------------------------------|
D|------------------------------------------------------------------|
G|------------------------------------------------------------------|
B|-19b--16--19b--16--19b--19--16--19b-------------------------------|
e|------------------------------------------------------------------|

E|------------------------------------------------------------------|
A|------------------------------------------------------------------|
D|------------------------------------------------------------------|
G|--18b-----------18b--16--18b--18--15--16--15h16--15h16p15---------|
B|-------19--19b----------------------------------------------------|
e|------------------------------------------------------------------|

E|------------------------------------------------------------------|
A|--------------------18-----16h18----------------------------------|
D|--18--16--16h18p16----------------16h18--18b--18b--18b---16h18----|
G|------------------------------------------------------------------|
B|------------------------------------------------------------------|
e|------------------------------------------------------------------|

E|---------------------------------------------------------------------------|
A|---------------------------------------------------------------------------|
D|---------------------------------------------------------------------------|
G|--18b--16--18--16----18b---------18b---------18b---------18b---------18----|
B|-------------------------16--19------16--19------16--19------16--19-----16-|
e|---------------------------------------------------------------------------|

E|--x--x--x----------------------------------------------------------|
A|--x--x--x----------------------------------------------------------|
D|--x--x--x----------------------------------------------------------|
G|--x--x--x----------------------------------------------------------|
B|--x--x--x----------------------------------------------------------|
e|--x--x--x---21b--21b--21b--21b---16----16-18-19--21b--21b--21b--16-|

E|------------------------------------------------------------------|
A|------------------------------------------------------------------|
D|------------------------------------------------------------------|
G|------------------------------------------------------------------|
B|-----------------------------------------------19-----------------|
e|--16-18-19-19----19b--16---18-19--18h19p18--16--------------------|

E|------------------------------------------------------------------|
A|------------------------------------------------------------------|
D|------------------------------------------------------------------|
G|-----------------------------------18b--18-16-18b---18b--16-------|
B|--------------------------19--19b----------------19---------------|
e|---16-18-19--18h19p18--16-----------------------------------------|


Comment and Rate!

Thank you :)
Tap to rate this tab
# A B C D E F G H I J K L M N O P Q R S T U V W X Y Z