Song name
# A B C D E F G H I J K L M N O P Q R S T U V W X Y Z

Red Hot Chili Peppers - Stone Cold Bush tab

This is a tab for "Stone Cold Bush" by the Red Hot Chili Peppers; this is the correct 
he plays it:

Intro/Verse:

e---------------------|---------------|--------------------------------|
b-------------11------|---------------|--------------------------------|
g-------------10---X3-|---------------|--------------------------------|
d---------------------|---------------|----10--10-8-----8--8-7---------|
a-10-10-10-10---------|--6-7-8-9-10---|--10--10-------10-10------------|
e---------------------|---------------|--------------------------------|

chorus:

e---------------------------------------|------------------------------|
b------------------------11-11---11-11--|------------------------------|
g------------------------10-10---10-10--|------------------------------|
d-5555555533332222----------------------|----10--10-8-----8--8-7-------|
a-3333333311110000------10-10---10-10---|--10--10-------10--10---------|
e---------------------------------------|------------------------------|

these riffs are repeated different times throughout the song, but here they are. Rate 
this is my second tab!
Tap to rate this tab
 
# A B C D E F G H I J K L M N O P Q R S T U V W X Y Z