Guitaretab - guitar tabs
Song name
# A B C D E F G H I J K L M N O P Q R S T U V W X Y Z

Red Hot Chili Peppers - By The Way tab

Intro:
e-------------------------------------------------
h-------------------------------------------------
g-------------------------------------------------
d--7---10-------14-12--10---------10------14------
a--7---8----10--12-12--8---10--7---8--10--12------
E-----------8--------------8---5-------8----------

verse1/3:
e---------------|
h---------------|
g---------------|x2
d-7-7-7-7-7-7-7-|
a-5-5-5-5-5-5-5-|
E---------------|

     Dm
e--8-|--5-5-----8--|------------------------------
h--6-|--6-6-x4--6--|-x2---------------------------
g--7-|--7-7-----7--|------------------------------
d-------------------------------------------------
a-------------------------------------------------
E-------------------------------------------------

verse2:
e----------
h--fill:---
g--6/7-x16-
d----------
a----------
E----------

e-(5)-x-x-x-x-x-x-x-|
h-(6)-x-x-x-x-x-x-x-|
g-(7)-x-x-x-x-x-x-x-|
d-(7)-x-x-x-x-x-x-x-|
a-(5)-x-x-x-x-x-x-x-|
E-------------------|

     Dm
e---|--5-5-----8--|-------------------------------
h---|--6-6-x4--6--|-x2----------------------------
g---|--7-7-----7--|-------------------------------
d-------------------------------------------------
a-------------------------------------------------
E-------------------------------------------------

Chorus1/3:
e-------------------------------------------------
h-------------------------------------------------
g-------------------------------------------------
d-10-----------10---------------------------------
a-8---10--12----8---10---7--8---------------------
E-----8---10--------8----5--6---------------------

Chorus2:
e-------------------------------------------------
h-------------------------/-5---\1st time only----
g-------------------------\---7-/-----------------x2
d-10-----------10---------------------------------
a-8---10--7----8---10---7-------------------------
E-----8---5--------8----5-------------------------

Outro:
  F   C    Dm   F    C    Am   Bb  Dm
e-8---8----10---8----8----5----6---5--------------
h-10--8----10---10---8----5----6---6--------------
g-10--9----10---10---9----5----7---7--------------
d-10--10---12---10---10---7----8---7--------------
a-8---10---12---8----10---7----8---5--------------
E-----8----10--------8----5----6------------------
Listen carefully to get the rythm!!

Form:
Intro, verse1, chorus1, verse2, chorus2, verse3, chorus3, outro



For corrections please send an e-mail to: 
Yoomoo_15@yahoo.dk or Multhe@hotmail.com
[ Tab from: http://www.guitaretab.com/r/red-hot-chili-peppers/22989.html ]
Related for By The Way tab