Song name
# A B C D E F G H I J K L M N O P Q R S T U V W X Y Z

Red Hot Chili Peppers - Suck My Kiss tab

-------------------------------------------------------------------------------
			 Suck My Kiss – Red Hot Chili Peppers
-------------------------------------------------------------------------------
Tabbed by: Dalton P.
Email: dalto0217@hotmail.com

Tuning: Standard (EADGBe)


I noticed the other tabs of this song said there were two or three guitars in it, they’re wrong.
This is how to actually play it.


Intro:
e|--------------------|-----------------------------------|
B|--------------------|-----------------------------------|
G|-------0-------x-x--|--------------------------7/9-9-9--|
D|-------0-------x-x--|----------3-3-3-3-5/7-7-7----------|
A|-------1-------x-x--|--3/5-5-5--------------------------|
E|--1-3-----1-3--x-x--|-----------------------------------|

Verse:
e|------------------------------------|
B|------------------------------------|
G|------------------------------------|
D|------------------------------------|
A|----------------------------1h3p1---|
E|--1-3-3--1-3-3--1-3-3--1-33------1--|

Verse 2:
e|------4--------4-----5---6--|
B|------4--------4-----5---6--|
G|----------------------------|
D|--3---------3-----4---------|
A|--3---------3-----4---------|
E|----------------------------|

e|-----------------------|
B|-----------------------|
G|--------------------1--|
D|--------------------0--|
A|--------------------1--|
E|--3-3--1-3-3--1-3------|

Chorus:
e|---------3----3---------------------------3----3--------------------|
B|---------3-3--3-3-------------------------3-3--3-3-----------3br-0--|
G|--1--1---2-2--2-2---2--2-----------1--1---2-2--2-2---2--2----4br-0--|
D|--2--2-----0----0---2--2-----------2--2-----0----0---2--2-----------|
A|--2--2--------------0--0-----------2--2--------------0--0-----------|
E|--------------------------------------------------------------------|

e|---------3----3---------------------------3----3-----------|
B|---------3-3--3-3-------------------------3-3--3-3---------|
G|--1--1---2-2--2-2---2--2---1-1-1-x-1--1---2-2--2-2---2--2--|
D|--2--2-----0----0---2--2---2-2-2-x-2--2-----0----0---2--2--|
A|--2--2--------------0--0---2-2-2-x-2--2--------------0--0--|
E|-----------------------------------------------------------|

Solo:
e|--------------------------------------------------|
B|--------------------------------------------------|
G|--15h17p15-0-0-0-0-15h17p15-0-0-0-0-15h17p15-0-0--|
D|--------------------------------------------------|
A|--------------------------------------------------|
E|--------------------------------------------------|

e|--------------------------------------------------|
B|--------------------------------------------------|
G|--15h18p15-0-0-0-0-15h18p15-0-0-0-0-15h18p15-0-0--|
D|--------------------------------------------------|
A|--------------------------------------------------|
E|--------------------------------------------------|

e|--------------------------------------|
B|--------------------------------------|
G|--15p0-0-0-0-0-15p0-0-0-0-0-15p0-0-0--|
D|--------------------------------------|
A|--------------------------------------|
E|--------------------------------------|

e|---------------------------------------------------|
B|---------------------------------------------------|
G|--10h12-12-12-10h12-12-12-10h12-12-12-10h12-12-12--|
D|---------------------------------------------------|
A|---------------------------------------------------|
E|---------------------------------------------------|

e|--10--10--10-10-10-10--10-10-10—12p10-10-10--|
B|--11--11--11-11-11-11--11-11-11-------11-11--|
G|---------------------------------------------|
D|---------------------------------------------|
A|---------------------------------------------|
E|---------------------------------------------|

e|--10--10--10-10-10-10--10-10-10—12p10-10-10--|
B|--11--11--11-11-11-11--11-11-11-------11-11--|
G|---------------------------------------------|
D|---------------------------------------------|
A|---------------------------------------------|
E|---------------------------------------------|

e|--10--10--10-10-10-10--10-10-10—12p10--|
B|--11--11--11-11-11-11--11-11-11--------|
G|---------------------------------------|
D|---------------------------------------|
A|---------------------------------------|
E|---------------------------------------|

(strum each chord really fast)
e|--10--13—-15--17-------------|
B|--11--15—-17--19-------------|
G|-----------------------------|
D|-----------------------------|
A|-----------------------------|
E|-----------------------------|



There you go, if you have any questions, email me at dalton0217@hotmail.com.


************************************

| /   slide up
| \   slide down
| h   hammer-on
| p   pull-off
| v   vibrato
| +   harmonic
| x   Mute note
| b   Bend
| pb  Pre-bend
| br  Bend release
| pbr Pre-bend release
| brb Bend release bend
| ~   let ring

************************************

Tap to rate this tab
 
# A B C D E F G H I J K L M N O P Q R S T U V W X Y Z