Guitaretab - guitar tabs
Song name
# A B C D E F G H I J K L M N O P Q R S T U V W X Y Z

Red Hot Chili Peppers - The Zephyr Song tab

Red Hot Chili Peppers The Zephyr Song
From the By the Way Album
Tabbed by Liam
Email: guitar_rocker_47@hotmail.com
NOTE: Rhythm is not tabbed so you'll have to work it out yourself

Tab Notation
h  = hammer-on
b  = bend
x  = scratch
r  = bend release

Intro
e|----------------------------------------------------------------------------|
B|---------------------------------------------------------------------5------|
G|-------12--------10-------4-------5---------9--------7-------4-------5------|
D|----10---------9--------5-------7--------10--------9-------5-------7--------|
A|-12---------10--------7-------8-------12--------10-------7-------8----------|
E|----------------------------------------------------------------------------|

Verse
e|----------------------------------------------------------------------------|
B|----------------------------------------------------------------------------|
G|-------9-----12--10--9----------7-----10--9--7--------4------7---5---4------|
D|----10--------------------9-----------------------5-------------------------|
A|-12------12------------10---------10------------7---------7-----------------|
E|----------------------------------------------------------------------------|

e|----------------------------------------------------------------------------|
B|------------------------------------------------------------------10--------|
G|--------5---7h9--7--5--5b-----------9------12--14---9---------7---10--9--7--|
D|----7---------------------------10-------------------------9----------------|
A|-8--------------------------12---------12--------------10-------------------|
E|----------------------------------------------------------------------------|

e|----------------------------------------------------------------------------|
B|--------------------5-------------------------------------------------------|
G|--------4-------7-------5-----4--5------4--5--------------9------12--10-9--|
D|----5-------------------------------------------------10--------------------|
A|-7---------7---------------8--------8---------8---12---------12-------------|
E|----------------------------------------------------------------------------|

e|----------------------------------------------------------------------------|
B|----------------------------------------------------------------------------|
G|--------7-----10--9--7--------4------7---5---4--------57h9--7--5b----------|
D|-----9--------------------5------7-----------------7------------------------|
A|-10-------10-----------7------------------------8---------------------------|
E|----------------------------------------------------------------------------|

e|----------------------------------------------------------------------------|
B|-----------------------------------10------------------------5------------5-|
G|--------9-----12--14--9--------7---10--9--7-------4----7--9--5---4-5---4--5-|
D|----10----------------------9------------------5----7-----------------------|
A|12--------12------------10------------------7------------------8-----8------|
E|----------------------------------------------------------------------------|


Chorus

Note: I haven't tabbed the rhythm. And These chords are played once only
e|------------5----5-----------5----5-----------------------------------------|
B|--7---------3----5-----7-----3----5-----------------------------------------|
G|--7---------4----6-----7-----4----6-----------------------------------------|
D|--7---------5----7-----7-----5----7-----------------------------------------|
A|--5---------x----x-----5-----x----x-----------------------------------------|
E|------------3----5-----------3----5-----------------------------------------|

Interlude: The bit where kiedis sings 'fly____ on my____ wind ' and 'Oo____ ah___'
e|--------------------------------------------------------------------------------|
B|--------------------------------------------------------------------------------|
G|--------9----12--10--9-------7----10--9--7------4----7--5---4--------57h9--7--5|
D|----10--------------------9------------------5--------------------7-------------|
A|-12-------12-----------10------10----------7------7------------8----------------|
E|--------------------------------------------------------------------------------|

Verse 2
e|--------------------------------------------------------------------------------|
B|--------------------------------------------------------------------------------|
G|-------9-----12--10-9------7------10--9--7--9-----4---7-5-4-5-----5-7h9-7-5-7h9-|
D|----10-------------------9----------------------5---------------7---------------|
A|-12-------12----------10------10--------------7-----7---------8-----------------|
E|--------------------------------------------------------------------------------|

e|-----------------------------------------------------------------------------|
B|--------------------------------10---------------------5----------------5----|
G|--------9-----12--14--9------7--10--9--7-----4----7-9--5----4--5-----4--5----|
D|----10---------------------9---------------5---------------------------------|
A|-12-------12------------10---------------7-----7----------8-------8----------|
E|-----------------------------------------------------------------------------|

Chorus 2
e|------5---5-----------5---5----------------------------------------5--5--5--5-5-|
B|--7---3---5-----7-----3---5----7--7-7--7--7--7--7-7--7--7--7--x-x--3--3--3--3-3-|
G|--7---4---6-----7-----4---6----7--7-7--7--7--7--7-7--7--7--7--x-x--4--4--4--4-4-|
D|--7---5---7-----7-----5---7----7--7-7--7--7--7--7-7--7--7--7--x-x--5--5--5--5-5-|
A|--5---x---x-----5-----x---x----5--5-5--5--5--5--5-5--5--5--5--x-x--x--x--x--x-x-|
E|------3---5-----------3---5----------------------------------------3--3--3--3-3-|

e|-5--5--5--5-5--------------------------------------5--5--5--5-5--5--5--5--5-5-|
B|-7--7--7--7--7--7--7-7--7--7--7--7-7--7--7--7--x-x--3--3--3--3-3--7--7--7--7--7-|
G|-6--6--6--6--6--7--7-7--7--7--7--7-7--7--7--7--x-x--4--4--4--4-4--6--6--6--6--6-|
D|-7--7--7--7--7--7--7-7--7--7--7--7-7--7--7--7--x-x--5--5--5--5-5--7--7--7--7--7-|
A|-x--x--x--x--x--5--5-5--5--5--5--5-5--5--5--5--x-x--x--x--x--x-x--x--x--x--x--x-|
E|-5--5--5--5--5--------------------------------------3--3--3--3-3--5--5--5--5--5-|
[ Tab from: http://www.guitaretab.com/r/red-hot-chili-peppers/24532.html ]
Solo
e|-12--10--12b-12-|-10b--12-7r--5b-|-10--8--10--10b--10-x-|-10b---12--7r---5--|
B|----------------|-----------------|----------------------|-------------------|
G|----------------|-----------------|----------------------|-------------------|
D|----------------|-----------------|----------------------|-------------------|
A|----------------|-----------------|----------------------|-------------------|
E|----------------|-----------------|----------------------|-------------------|

e|-12--10--12-12b-|-10b-12--7r--5b-|-10--8--1010b--10--8-|-10b--12-7r--5--0-|
B|----------------|-----------------|----------------------|-------------------|
G|----------------|-----------------|----------------------|-------------------|
D|----------------|-----------------|----------------------|-------------------|
A|----------------|-----------------|----------------------|-------------------|
E|----------------|-----------------|----------------------|-------------------|

Bridge
e|--7--7--7--7--7--7--7--x-x---5--5--5--5--5--5--5--x-x--0--0-0--0-0--0-0--0-0--|
B|--5--5--5--5--5--5--5--x-x---3--3--3--3--3--3--3--x-x--0--0-0--0-0--0-0--0-0--|
G|--5--5--5--5--5--5--5--x-x---4--4--4--4--4--4--4--x-x--0--0-0--0-0--0-0--0-0--|
D|--7--7--7--7--7--7--7--x-x---5--5--5--5--5--5--5--x-x--2--2-2--2-2--2-2-------|
A|------------------------------------------------------------------------------|
E|------------------------------------------------------------------------------|

e|-5--5--5--5--5--5--5--5--5--5--7---7--7--7--7--7--7--7--x-x--5--5--5--5--5--5-|
B|-8--8--8--8--8--8--8--8--8---------5--5--5--5--5--5--5--x-x--3--3--3--3--3--3-|
G|-5--5--5--5--5--5--5--5--5---------5--5--5--5--5--5--5--x-x--4--4--4--4--4--4-|
D|-7--7--7--7--7--7--7--7--7---------7--7--7--7--7--7--7--x-x--5--5--5--5--5--5-|
A|-8--8--8--8--8--8--8--8--8----------------------------------------------------|
E|------------------------------------------------------------------------------|

e|-5--x-x--0--0--0--0--0--0--0--0--0--5-----------------------------------|
B|-3--x-x--0--0--0--0--0--0--0--0--0--8-----------------------------------|
G|-4--x-x--0--0--0--0--0--0--0--0--0--5-----------------------------------|
D|-5--x-x--2--2--2--2--2--2--2--------7-----------------------------------|
A|------------------------------------8-----------------------------------|
E|------------------------------------------------------------------------|

Bridge 2
e|------5---5-------5---5------------------------------------x-x-----|
B|--7---3---5---7---3---5---7--7--7--7--7--7--7--7--7--7--7--x-x-----|
G|--7---4---6---7---4---6---7--7--7--7--7--7--7--7--7--7--7--x-x-----|
D|--7---5---7---7---5---7---7--7--7--7--7--7--7--7--7--7--7--x-x-----|
A|--5---x---x---5---x---x---5--5--5--5--5--5--5--5--5--5--5----------|
E|------3---5-------3---5--------------------------------------------|

e|-3--3--3--3--3--3--3---5--3--5------------------------------------------|
B|-3--3--3--3--3--3--3---5--3--5------------------------------------------|
G|-4--4--4--4--4--4--4---6--4--6------------------------------------------|
D|-5--5--5--5--5--5--5---7--5--7------------------------------------------|
A|-x--x--x--x--x--x--x---x--0--x------------------------------------------|
E|-3--3--3--3--3--3--3---5-----5------------------------------------------|

e|------5---5-------5---5---3--3--3--3--3--3--3--3---5--5--5--5--5--5--5--5--|
B|--7---3---5---7---3---5---3--3--3--3--3--3--3--3---5--5--5--5--5--5--5--5--|
G|--7---4---6---7---4---6---4--4--4--4--4--4--4--4---6--6--6--6--6--6--6--6--|
D|--7---5---7---7---5---7---5--5--5--5--5--5--5--5---7--7--7--7--7--7--7--7--|
A|--5---x---x---5---x---x---x--x--x--x--x--x--x--x---x--x--x--x--x--x--x--x--|
E|------3---5-------3---5---3--3--3--3--3--3--3--3---5--5--5--5--5-5--5--5--|

e|--14----------14--------14-------14--------14---------------15---------15--|
B|------15---------15--------15-------15--------15---------15--------15------|
G|----------14--------14--------14-------14--------14---16--------16---------|
D|---------------------------------------------------------------------------|
A|---------------------------------------------------------------------------|
E|---------------------------------------------------------------------------|

e|--------------17-------------14--------14--------14--------14--------14-|
B|----15-----17-------------15--------15--------15--------15--------15----|
G|-16-----18--------18---14--------14--------14--------14--------14-------|
D|------------------------------------------------------------------------|
A|------------------------------------------------------------------------|
E|------------------------------------------------------------------------|

e|-------15--------15----------------17----15--17----------14--------14----|
B|----15--------15--------15------17-------15--17-------15--------15-------|
G|-16--------16--------16------18----------16--18----14--------14----------|
D|-------------------------------------------------------------------------|
A|-------------------------------------------------------------------------|
E|-------------------------------------------------------------------------|

e|-------14--------14--------14--------15--------15---------------17-------17-|
B|----15--------15--------15--------15--------15--------15-----17-------17----|
G|-14--------14--------14--------16--------16--------16-----18-------18-------|
D|----------------------------------------------------------------------------|
A|----------------------------------------------------------------------------|
E|----------------------------------------------------------------------------|

e|------------14--------14--------14--------14--------14--------15--------15--|
B|---------15--------15--------15--------15--------15--------15--------15-----|
G|-18---14--------14--------14--------14--------14--------16--------16--------|
D|----------------------------------------------------------------------------|
A|----------------------------------------------------------------------------|
E|----------------------------------------------------------------------------|

e|---------17---------17---------------------------------------------------|
B|----15---17---------19---------------------------------------------------|
G|-16------18---------18---------------------------------------------------|
D|-------------------------------------------------------------------------|
A|-------------------------------------------------------------------------|
E|-------------------------------------------------------------------------|

And there it is...
This song Rocks but it's really hard to play so I recommend you have 2 guitars
One with a capo at 5 at the other 3 or one at 7 and the other at 5 cos it helps
a lot having a capo on this song - its up to you really however nothing is tabbed
Relative to a capo.

Comments Suggestions or anything like that email me at guitar_rocker_47@Hotmail.com

And lastly if anyone has a correct tab for RHCP californication live with the
improved guitar solo could you please send it to me. BYE!
Related for The Zephyr Song tab