Red Hot Chili Peppers - Especially In Michigan tab

Red Hot Chili Peppers
Especially In Michigan
Stadium Arcadium

Tribute to the ending solo performed by Christopher Nordberg.
Watch: http://www.youtube.com/watch?v=8TJL-7V5dDg

b = bend
h = hammer
~ = let ring / hold
\ = down slide

E|---------------------------------16-16h17p16---------------|
B|--17b19-17-14-17b19-17-14-----17-------------17------------|
G|---------------------------16-------------------16---------|
D|-----------------------------------------------------------|
A|-----------------------------------------------------------|
E|-----------------------------------------------------------|

E|----------------12-----------------------------------------|
B|----------------------------------------15-15b17b15--------|
G|--------14-16b18~~18b16-14-----------14-------------14-----|
D|--14s16--------------------16-16--16-------------------16--|
A|-----------------------------------------------------------|
E|-----------------------------------------------------------|

E|---------------------------------16-16b17b16---------------|
B|--17b19b17-14-17b19-17-14-----17-------------17------------|
G|---------------------------16-------------------16\--------|
D|-----------------------------------------------------------|
A|-----------------------------------------------------------|
E|-----------------------------------------------------------|

E|-------9----------------------|
B|--9b10~~~9b10b9-7-7~~~~~~~~~--|
G|------------------------------|
D|------------------------------|
A|------------------------------|
E|------------------------------|

That's it!
Corrections or comments: 1907cc@gmail.com
Tap to rate this tab
 
# A B C D E F G H I J K L M N O P Q R S T U V W X Y Z