Red Hot Chili Peppers - Cabron tab

(/) Slide   (v) Strum Down   (^) Strum Up

CAPO ON 7th FRET.

Intro:

E|--17------------14------------|
B|--0-------------0-------------|
G|--0-------------0-------------| (x2)
D|--16------------12------------|
A|--17------------14------------|
E|------------------------------|

E|---------0------------0-----0--      |--9----------------|
B|------------8------------------      |--10---------------|
G|------0------------0-----0----- (x2) |--9----------------|
D|-------------------------------      |--0----------------|
A|--10-----------10--------------      |-------------------|
E|-------------------------------      |-------------------|

Verse:
                       v    v   v  ^   v
E|---------------------10--10--10--10--10-----|
B|---------------------0---0---0---0---0------|
G|--11--9--------------0---0---0---0---0------|
D|---------12--11--12--0---0---0---0---0------|
A|---------------------9---9---9---9---9------|
E|---------------------10--10--10--10--10-----|


                     v  v  v  ^  v
E|-------------------0--0--0--0--0-----|
B|-------------------0--0--0--0--0-----|
G|-------------------0--0--0--0--0-----|
D|--12--11--9--0-----9--9--9--9--9-----|
A|----------------9--9--9--9--9--9-----|
E|-------------------------------------|

Chorus:
    v   v   ^   v   ^
E|--0---0---0---0---0---|
B|--8---8---8---8---8---|
G|--0---0---0---0---0---| (x2)
D|--9---9---9---9---9---|
A|--10--10--10--10--10--|
E|----------------------|


    v   v   ^   v   ^
E|--9---9---9---9---9---|
B|--10--10--10--10--10--|
G|--9---9---9---9---9---| (x2)
D|--0---0---0---0---0---|
A|----------------------|
E|----------------------|


    v   v   ^   v   ^
E|--17--17--17--17--17--|
B|--0---0---0---0---0---|
G|--0---0---0---0---0---| (x2)
D|--16--16--16--16--16--|
A|--17--17--17--17--17--|
E|----------------------|


    v   v   ^   v   ^
E|--14--14--14--14--14--|
B|--0---0---0---0---0---|
G|--0---0---0---0---0---| (x2)
D|--12--12--12--12--12--|
A|--14--14--14--14--14--|
E|----------------------|


    v   v   ^   v   ^
E|--0---0---0---0---0------|
B|--8---8---8---8---8------|
G|--0---0---0---0---0------| (x2)
D|--9---9---9---9---9------|
A|--10--10--10--10--10-----|
E|-------------------------|


    v   v   ^   v   ^
E|--9---9---9---9---9---|
B|--10--10--10--10--10--|
G|--9---9---9---9---9---| (x2)
D|--0---0---0---0---0---|
A|----------------------|
E|----------------------|

E|--17--17--17--17--17----17--17--17--19--21--|
B|--0---0---0---0---0-----0---0---0---0---0---|
G|--0---0---0---0---0-----0---0---0---0---0---|
D|--16--16--16--16--16----16--16--16--16--16--|
A|--17--17--17--17--17----17--17--17--17--17--|
E|--------------------------------------------|

E|--19--19--19--19--19--|
B|--0---0---0---0---0---|
G|--0---0---0---0---0---| (x2)
D|--16--16--16--16--16--|
A|--17--17--17--17--17--|
E|----------------------|

Solo:

E|--------------------     |--------|
B|--14/19------14/12--     |--12/8--|
G|--------------------(x4) |--------|
D|--------------------     |--------|
A|--------------------     |--------|
E|--------------------     |--------|

This is my first tab so please rate it and let me know if you spot any mistakes. Cheers! Paul.
Tap to rate this tab
 
# A B C D E F G H I J K L M N O P Q R S T U V W X Y Z