Song name
# A B C D E F G H I J K L M N O P Q R S T U V W X Y Z

Red Hot Chili Peppers - Under The Bridge Acoustic tab

i got this from the official music video where john plays the acoustic, it sounds
different from the studio version and the outro is hard to pick out but im 100% 
sure this is right

  intro
e|-----------------------------------------------------------2/4-|
B|---3-------3-------------------------------------------3---3/5-|
G|-------2-----2----------------3--------------------2-----2-----|
D|-----4---4-----4-2--------4-----4--4-2---------4------4--------|
A|---5---------------5-4--4---4----------5-2--4/5---5------------|
E|-----------------------2---------------------------------------|

e|------------------------------------------------|
B|---------------------------------3--------------|
G|--------3-------------------2------2------------|
D|----4-----4--4-2---------4----4-----------------|
A|--4---4----------5-2--4/5--5--------4-2---------|
E|-2--------------------------------------5-4--2--|

e|-------------------------------------2/4---------------------|
B|---------------------------------3---3/5---------------------|
G|-------3--------------------2------2-------------3-----3-----|
D|---4-----4--4-2---------4-----4---------------4----4-----4---|
A|-4---4----------5-2--4/5--5-----------------4---4-----4----4--|    end of intro
E|------------------------------------------2-------------------|



 1st verse
e|---------------------|-----------------|
B|---9--7----9---4-5---|-9--7----9---5---|
G|---9--8----9---4-6---|-9--8----9---6---|.....repeat both twice
D|---9--9----11--6-7---|-9--9----11--7---|
A|---7--9----11--6-7---|-7--9----11--7---|
E|---------------------|-----------------|

....then
e|---7-----|
B|---9-----|
G|---8-----|
D|---9-----|
A|---7-----|
E|---7-----|

 verse two
e|------------------------------------5h7p5--|-------------------------------------------------|
B|---9-7--7-7-------------9---9--4--5------5-|-----9-----7--7-7-------------9---9---5--5--5-5--|
G|---9-8--8-8-8h9p8-8-----9---9--4--6--------|-----9-----8--8-8-8h9p8-8-----9---9---6--6--6-6--|
D|---9-9--9-9------9--9/11--11---6--7--------|-----9-----9--9-9------9--9/11--11----7--7--7-7--|
A|--7--9--9-9---------9/11--11---6--7--------|---9/11-11-9--9-9---------9/11--11----7--7--7-7--|
E|-------------------------------------------|-------------------------------------------------|
.....repeat both twice

....then
e|---7-----|
B|---9-----|
G|---8-----|
D|---9-----|
A|---7-----|
E|---7-----|

 chorus
e|------------------11-11-11-11-11-11-11-11-11-11--------------|
B|------10---9-9--9-12-12-12-12-12-12-12-12-12-12--10-10-------|
G|--x-x-11-x-9-9--9-11-11-11-11-11-11-11-11-11-11--11-11-x-x---|                                  
D|--x-x-11-x-9-9--9--------------------------------11-11-x-x---|.....repeat exaclty as shown
A|--x-x-9--x-7-7--7--------------------------------9--9--x-x---| four times
E|-------------------------------------------------------------|

then repeat verse two and the "......then" part, then the chorus, and now here is 
the hard part to pick out but this is how i play it

outro part 1
e|--0--0-0-5--5-5-5-5--0-0-0--0-0-0-0--|
B|--5--5-5-5--5-5-5-5--3-3-3--1-1-1-1--|
G|--6--6-6-5--5-5-5-5--4-4-4--2-2-2-2--|....repeat three times
D|--7--7-7-7--7-7-7-7--5-5-5--3-3-3-3--|
A|-------------------------------------|
E|-------------------------------------|

then...
outro part 2

e|--12-12-12-12-12-12-12-12-12-12-12-10-10-10-10-10-10-10-7-7-7-7-7-7-|
B|--10-10-10-10-10-10-10-10-10-10-10-9--9--9--9--9--9--9--8-8-8-8-8-8-|
G|--10-10-10-10-10-10-10-10-10-10-10-9--9--9--9--9--9--9--7-7-7-7-7-7-|
D|--------------------------------------------------------------------|
A|--------------------------------------------------------------------|
E|--------------------------------------------------------------------|

after this repeat outro part 1 for about 45 more seconds

i hope this tab was a helping hand to :)
-dom
please rate
Tap to rate this tab
 
# A B C D E F G H I J K L M N O P Q R S T U V W X Y Z