Red Hot Chili Peppers - Over Funk tab

Over Funk by RHCP
Californication Bonus Track

Intro
e|-2-~-10-~---------------------------------------------------------|
B|-3-~-9--~---------------------------------------------------------|
G|-4-~-9--~---------------------------------------------------------|
D|-4-~-9--~-------------------------------------------x2------------|
A|-2-~-7--~--------5---5/4---------5---5/4--------------------------|
E|------------/7-7---7--------/7-7---7------------------------------|

Verse (x2) is exactly like intro but
e|-10--------------------|
B|-9----------------9----|
G|-9------is just---9----|
D|-9----------------9----|
A|-7----------------7----|
E|-----------------------|

Pre chorus is                       1.             2.
e|--------------------------------|--------------|------------------|
B|--------------------------------|--------------|------5-----------|
G|------7-7p6-----6-6-4-----7-7p6-|------6-6-----|--------6---------|
D|--------------------------------|----------7h9-|----------7h9-----|
A|--------------------------------|--------------|------------------|
E|--5-7-------5-7-------5-7-------|-5-7----------|--5-7-------------|

Chorusx2
e|------------------------------------------------------------------|
B|------------------------------------------------------------------|
G|-------------------4-----------------4p3-------------------4------|
D|------------------------------------------------------------------|
A|------------------------------------------------------------------|
E|-0-0-3-0-3-5-2-3-0---0-0-3-0-3-5-2-3-----0-0-3-0-3-5-2-3-0--------|

e|------------------------------------------------------------------|
B|------------------------------------------------------------------|
G|------------------------------------------------------------------|
D|------------------------------------------------------------------|
A|-------------4--4-4---4-------------------------------------------|
E|-0-0-3-0-3-5--------3---------------------------------------------|

Back to intro x 2 and then verse again

Prechorus

Chorus

Bridge (* means im not sure, but it sounds like its there, but may be bass)
e|--9h10-9h10-9h10-9h10-7h9-7h9-7h9-7h9--|     
B|---------------------------------------|       
G|---------------------------------------| x8 
D|---------------------------------------|
A|---------------------------------------|
E|---------------------------------------|

Last time around he slides
e|-----------|
B|-----------|
G|-----------|
D|-----------|
A|-----------|
E|--/-15-/---|

And then moves to the prechorus which he plays twice and then finished! Enjoy.
Tap to rate this tab
 
# A B C D E F G H I J K L M N O P Q R S T U V W X Y Z