Red Hot Chili Peppers - Slow Cheetah tab

                         Slow Cheetah
                         Red Hot Chili Peppers

I think I got everything right for this!

e|-----9-------------|-------------------------------|
B|-------------------|--------9-10-------------------|
G|--8b------8r-6-6---|---8/10------8br-6---8-8-------|
D|-------------------|-------------------8-----------|
A|-------------------|-------------------------------|
E|-------------------|-------------------------------|

e|-----------------------|---------------------------|
B|-----------------------|-------9-10----------------|
G|------6-8-8br-6h8-6-6--|--8/10------8br-6---8------|
D|--6h8------------------|------------------8--------|
A|-----------------------|---------------------------|
E|-----------------------|---------------------------|

e|---------------------------|-----------------------|
B|---------------------------|------9-10-------------|
G|------6h8-6h8-8br-6h8-6-6--|-8/10------8br-6--8-8--|
D|--6h8----------------------|-----------------8-----|
A|---------------------------|-----------------------|
E|---------------------------|-----------------------|

e|-----------------------|---------------------------|
B|-----------------------|------9-10-----------------|
G|------6-8-8br-6h8-6-6--|-8/10------8br-6---8-------|
D|--6h8------------------|-----------------8---------|
A|-----------------------|---------------------------|
E|-----------------------|---------------------------|

b- bend
r- release
br- bendRelease
h- hammeron
/-slide
Tap to rate this tab
 
# A B C D E F G H I J K L M N O P Q R S T U V W X Y Z