Song name
# A B C D E F G H I J K L M N O P Q R S T U V W X Y Z

Red Hot Chili Peppers - Warped tab

Red Hot Chili Peppers : Warped : Tuning (E-A-D-G-B-E)

Intro / Verse
E|-------------------------------------|
B|-------------------------------------|
G|-------------------------------------|
D|-------------------------------------|
A|----5h-7---5h-7---5h-7---5h-7--0-----|
E|--0------0------0------0---------5b--|

CHORUS
B|-3--3--3-|
G|-0--2--0-|x?
D|-0--0--0-|

G|-12--11--9-12--11----7---5-|
D|---------------------------|
A|-10---9--7-10---9----5---3-|

G|-12--11--14-17--16--14--12--11-9-|
D|---------------------------------|x2 
A|-10---9--12-15--14--12--10---9-7-|

W/Delay
G|-17--17--17--17-|
D|----------------|
A|-15--15--15--15-|

SOLO
B|--------20\sl--19--------------|------------|
G|-17\sl---------17-------17-17b-|-17-17-17-17|
D|-------------------xxxx--------|------------|
A|-------------------xxxx--------|-15-15-15-15|

G|-17-19-|-17-19-16-17-14-12-|W/Delay
D|-------|-------------------|
A|-15-17-|-15-17-14-15-12-10-|

B|--20-20-20-20-20-20----20-19-19-19-19--------------|
G|--------------------19-----------------17-17-17-17-|

B|--19-19-19-19-19----------------------------------|
G|-----------------17-17-17-17-17-17-17-17-17-17-17-|

G|--18-18-18-18-18-18--------------------------------|
D|--------------------19-19-19-19-19-19-19-19-19-19--|

G|--19-19-19-19-19-19-19-19-19-19-19-19-19-|

B|-------------------------------|-----------------8-8-7-7-8-8-7-7|
G|-----------------------------5b|-----------------5-5-5-5-5-5-5-5|
D|-7-7-7-7-7-7-7-7-7-7-7-7-7-7---|-7-7-7-7-7-7-7-7----------------|x3
A|-0-0-0-0-0-0-0-0-0-0-0-0-0-0---|-0-0-0-0-0-0-0-0----------------|

Repeat first part of chorus

G|---------------------------7--|--------------------77-|
D|---------------------------5--|--------------------55-|x2 w/variations
A|--5h-7--5h-7--5h-7--5h-7-0-0--|--5h-7--5h-7--5h-7-000-|
E|0-----0-----0-----0-----------|0-----0-----0----------|

Outro: Clean
E|-------------------------|----4---4-----4-6-|--4-7-7-----|-0-----|
B|-8--x-8--x-8-x-8--x-8-8--|7-6-4-4-4-7-6-4-4-|4-4-9-9-9-9-|-0-9-0-|
G|-7--x-7--x-7-x-7--x-7-7--|6-6-4-4-4-6-6-4-4-|4-4-9-9-9-9-|-6-9-7-|
D|-------------------------|6-6-6-4-6-6-6-6-6-|4-6-7-7-8-8-|-5-9-5-|
A|-------------------------|------------------|----7-7-9-9-|-0-7-7-|
E|-2--2-0--0-2-2-0--0-5-4--|------------------|------------|---0---|
Play after outro............

End
Transcribed by Nur-Karim
Tap to rate this tab
# A B C D E F G H I J K L M N O P Q R S T U V W X Y Z