Song name
# A B C D E F G H I J K L M N O P Q R S T U V W X Y Z

Red Hot Chili Peppers - Californication tab

E|-----9------------------9-----------------------------|
B|-10----10-----------10-----10-------------------------|
G|-----------11--11--------------11--11-----------------|
D|------------------------------------------------------|
A|------------------------------------------------------|
E|------------------------------------------------------|

E|------------------------------------------------------|
B|----------------------------9-------------------------|
G|-11-11-11-11-9-----------9-------9--------------------|
D|---------------11---9-11-----------9------------------|
A|------------------------------------------------------|
E|------------------------------------------------------|

E|-----9--12--14--------9--12-16-14-----17-16-14-12-14-12----12----------|
B|-10---------------10------------------------------------14-----14------|
G|-----------------------------------------------------------------------|
D|-----------------------------------------------------------------------|
A|-----------------------------------------------------------------------|
E|-----------------------------------------------------------------------|

E|--------------12----16--12----12---------12-9-8-------|
B|-14---14---14----14--------14----14-12-9--------9-----|
G|------------------------------------------------------|
D|------------------------------------------------------|
A|------------------------------------------------------|
E|------------------------------------------------------|

my first tab

Tap to rate this tab
 
# A B C D E F G H I J K L M N O P Q R S T U V W X Y Z