Guitaretab - guitar tabs
Song name
# A B C D E F G H I J K L M N O P Q R S T U V W X Y Z

Red Hot Chili Peppers - Dont Forget Me Live tab

---------------------------------------------------------------------------
      Don't Forget Me Live at La Cigale Intro - Red Hot Chili Peppers
---------------------------------------------------------------------------

Tabbed by: Spectrallink
Email: greg_ice@hotmail.com

Tuning: Standard, EADGBe

Hey guys, this is the awesome intro John plays at the beginning of Don't Forget Me Live 
La Cigale, I tried to show timing as well as possible.

Link to video: http://www.youtube.com/watch?v=ISIFh8hBz7g

e|10---------15----17/19-19----15/17----12/13----15--12b----10/12--15---10---|
B|----12---------------------------------------------------------------------|
G|--------------------------------------------------------12-----------------|
D|---------------------------------------------------------------------------|
A|---------------------------------------------------------------------------|
E|---------------------------------------------------------------------------|
[ Tab from: http://www.guitaretab.com/r/red-hot-chili-peppers/255205.html ]
e|----12--12---------------------------------13----15----15----10------------|
B|--13--13--13----------13----13----13-----12----------17----12--------------|
G|14------------------14----14----14-----13------17--17----12----------------|
D|------------------15----15----15-------------------------------------------|
A|---------------------------------------------------------------------------|
E|---------------------------------------------------------------------------|

e|----13-13----------12----12--12----------------------------------15--------|
B|--12-----12--------13------13------------13---13--13h15p13-------17--------|
G|13---------13----14----14------14--------14-----14--------14---17----------|
D|------------------------------------14/15--15------------------------------|
A|---------------------------------------------------------------------------|
E|---------------------------------------------------------------------------|

e|--15----------10---15-----15-16--------------------------------------------|
B|----17------12----------16-------------------------------------------------|
G|17----17--12----------15---------------------------------------------------|
D|---------------------------------------------------------------------------|
A|---------------------------------------------------------------------------|
E|---------------------------------------------------------------------------|

100% right, have fun! =D

************************************

| /   slide up
| \   slide down
| h   hammer-on
| p   pull-off
| ~   vibrato
| +   harmonic
| x   Mute note
| b   Bend
| pb  Pre-bend
| br  Bend release
| pbr Pre-bend release
| brb Bend release bend
Related for Dont Forget Me Live tab
Dont Forget Me Live chords by Red Hot Chili Peppers