Song name
# A B C D E F G H I J K L M N O P Q R S T U V W X Y Z

Red Hot Chili Peppers - Dosed tab

Help us improve GuitareTab! Take a short survey!
This song is really good and easy to learn.
This isn't the strum pattern, but it is the 
beats.  Just play around with the strum 
pattern and you will get the hang of it.


Intro and verse:
  Guitar 1:
E---0--0--0--0--0--0--0--0-----
B---5--5--5--5--7--7--8--8-----
G---0--0--0--0--0--0--0--0-----
D---5--5--5--5--7--7--9--9-----
A---3--3--3--3--5--5--7--7-----
E---x--x--x--x--x--x--x--x-----

  Guitar 2:
E------------------------------            E------------------
B------------------------------            B------------------
G-----------4-4-7--4--4--------  3x then:  G---4-4-4-7-9-4----
D------------------------------            D------------------
A------------------------------            A------------------
E------------------------------            E------------------

Chorus:
    Way upon the mtn. where she die--hi--ied
E---x----x-------x------x-------x----x---x---x----
B---x----x-------x------x-------8----7---5---5----
G---4----4-------7------7-------0----0---0---0----
D---5----5-------7------7-------9----7---5---5----
A---5----5-------5------5-------7----5---3---3----
E---3----3-------x------x-------x----x---x---x----

Solo:

E---12--10--12--10--12--10--12--10--12--10--7--7--7--7---
B--------------------------------------------------------
G--------------------------------------------------------
D--------------------------------------------------------
A--------------------------------------------------------
E--------------------------------------------------------

E---12--10--12--10--12--10--12--10--12--10--7--7--7--7---
B--------------------------------------------------------
G--------------------------------------------------------
D--------------------------------------------------------
A--------------------------------------------------------
E--------------------------------------------------------

E---8--8--8--8--8--7-------------------------------------
B---------------------8--8--8--7--8--8-------------------
G--------------------------------------------------------
D--------------------------------------------------------
A--------------------------------------------------------
E--------------------------------------------------------

E---7----8----7----8----7----8----7----------------------
B--------------------------------------8--8--------------
G--------------------------------------------------------
D--------------------------------------------------------
A--------------------------------------------------------
E--------------------------------------------------------

E---12--10--12--10--12--10--12--10--12--10--7--7--7--7---
B--------------------------------------------------------
G--------------------------------------------------------
D--------------------------------------------------------
A--------------------------------------------------------
E--------------------------------------------------------

E---12--10--12--10--12--10--12--10--12--10--7--7--7--7---
B--------------------------------------------------------
G--------------------------------------------------------
D--------------------------------------------------------
A--------------------------------------------------------
E--------------------------------------------------------

E---10--10--10--10--10--10--8--8--8--8--8---7----7----7b---7----10----
B---------------------------------------------------------------------
G---------------------------------------------------------------------
D---------------------------------------------------------------------
A---------------------------------------------------------------------
E---------------------------------------------------------------------
Related for Dosed tab