Song name
# A B C D E F G H I J K L M N O P Q R S T U V W X Y Z

Red Hot Chili Peppers - Dosed tab

Red Hot Chili Peppers - Dosed

Intro

Gtr 1
e|-12-----12----12----12----10----10--7--7---|
B|------12----12----12----10----10---8--8----|
G|----12----12----12----11----11----9--9-----| X 4 
D|-------------------------------------------|
A|-------------------------------------------|
E|-------------------------------------------|

Gtr 2
e|---------------|
B|---------------|
G|-12-11-9-----9~| x 4
D|---------12~---|
A|---------------|
E|---------------|

Gtr 3
e|----------------------|
B|----------------------|
G|----9---9----11----12-| x 4
D|----------------------|
A|--10--10---12----14---|
E|-8---8---10----12-----|

Gtr 4.
e|-----------|     |-----------|
B|-----------|     |-----------|
G|-----7-----| x 3 |-----7-9---|
D|-9-9---9-9-|     |-9-9-----9-|
A|-----------|     |-----------|
E|-----------|     |-----------|


Verse 1

Gtr 1
e|-12-----12----12----12----10----10--7--7---|
B|------12----12----12----10----10---8--8----|
G|----12----12----12----11----11----9--9-----| x 12
D|-------------------------------------------|
A|-------------------------------------------|
E|-------------------------------------------|

Gtr 2
e|---------------|
B|---------------|
G|-12-11-9-----9~| x 12
D|---------12~---|
A|---------------|
E|---------------|

Gtr 3
e|-10-----|-10-----|-10-----|-19-17-----------|-15-14-----------|
B|----7-8-|----7-8-|----7-8-|-------20-19--20-|-------17-15--17-|
G|--------|--------|--------|-----------------|-----------------| x 1
D|--------|--------|--------|-----------------|-----------------|
A|--------|--------|--------|-----------------|-----------------|
E|--------|--------|--------|-----------------|-----------------|

e|-----------|  
B|-----------|  
G|-----7-----| x 2 
D|-9-9---9-9-|     
A|-----------|     
E|-----------|     


e|-10-----|-10-----|-10-----|-19-17-----------|-15-14-----------|
B|----7-8-|----7-8-|----7-8-|-------20-19--20-|-------17-15--17-|
G|--------|--------|--------|-----------------|-----------------| x 1
D|--------|--------|--------|-----------------|-----------------|
A|--------|--------|--------|-----------------|-----------------|
E|--------|--------|--------|-----------------|-----------------|


Chorus 1

Gtr 1
   G        D        Em       C
e|-3--------5--------7--------8-------|
B|-3--------7--------8--------8-------|
G|-4--------7--------9--------9-------| X 4
D|-5--------7--------9--------10------|
A|-5--------5--------7--------10------|
E|-3--------5--------7--------8-------|

Gtr 2
   G            D        Em         C             ________
e|-----------------12-14-12-12-1212-15-14-12----|        |
B|-12--13--13--/15-------12-12-1212----------15-|        |
G|-12--12--12--/14------------------------------|        |
D|----------------------------------------------|        |
A|----------------------------------------------|        |
E|----------------------------------------------|        |
                                                         | x 2
 G          D           Em           C                   |
|--------------------------------------------------|     |
|-12-13-12--1010-12-13--12-12-121212-12121512-1512-|     |
|-12-12-12--1111-11-11--12-12-121212-12121212-1212-|     |
|-----------------------14-14-141414-14141414-1414-|     |
|--------------------------------------------------|     |
|--------------------------------------------------| ____|


Verse 2

Gtr 1
e|-12-----12----12----12----10----10--7--7---|
B|------12----12----12----10----10---8--8----|
G|----12----12----12----11----11----9--9-----| x 7
D|-------------------------------------------|
A|-------------------------------------------|
E|-------------------------------------------|

Gtr 2
e|---------------|
B|---------------|
G|-12-11-9-----9~| x 7
D|---------12~---|
A|---------------|
E|---------------|

Gtr 3
e|-10-----|-10-----|-10-----|-19-17-----------|-19-17-----------|-15-14-----------|-15-14-----------|
B|----7-8-|----7-8-|----7-8-|-------20-19--20-|-------20-19--20-|-------17-15--17-|-------17-15--17-|
G|--------|--------|--------|-----------------|-----------------|-----------------|-----------------|
D|--------|--------|--------|-----------------|-----------------|-----------------|-----------------|
A|--------|--------|--------|-----------------|-----------------|-----------------|-----------------|
E|--------|--------|--------|-----------------|-----------------|-----------------|-----------------|


Chorus 2

Gtr 1
   G        D        Em       C
e|-3--------5--------7--------8-------|
B|-3--------7--------8--------8-------|
G|-4--------7--------9--------9-------| Strike these chords as appropriate 
D|-5--------7--------9--------10------| when they are show. Listen to the song.
A|-5--------5--------7--------10------|
E|-3--------------------------8-------|

Gtr 2
   G            D        Em         C            
e|-----------------12-14-12-12-1212-15-14-12----|
B|-12--13--13--/15-------12-12-1212----------15-|
G|-12--12--12--/14------------------------------|
D|----------------------------------------------|
A|----------------------------------------------|
E|----------------------------------------------|
  G         D           Em           C
|--------------------------------------------------|
|-12-13-12--1010-12-13--12-12-121212-12121512-1512-|
|-12-12-12--1111-11-11--12-12-121212-12121212-1212-|
|-----------------------14-14-141414-14141414-1414-|
|--------------------------------------------------|
|--------------------------------------------------|

   G            D        Em         C                      
e|-----------------12-14-12-12-1212-15-14-12----|
B|-12--13--13--/15-------12-12-1212----------15-|
G|-12--12--12--/14------------------------------| 
D|----------------------------------------------|
A|----------------------------------------------|
E|----------------------------------------------|

  
  G         D           Em                            C
|----------------------------------------------------------------------------------|
|-12-13-12--1010-12-13--12-1212-1212--12-1212-121212--15-1515-1515--15-1515-151515-|
|-12-12-12--1111-11-11--12-1212-1212--12-1212-121212--12-1212-1212--12-1212-121212-|
|-----------------------14-1414-1414--14-1414-141414--14-1414-1414--14-1414-141414-|
|----------------------------------------------------------------------------------|
|----------------------------------------------------------------------------------|


Fill.

Gtr 1
e|-12-----12----12----12----10----10--7--7---|
B|------12----12----12----10----10---8--8----|
G|----12----12----12----11----11----9--9-----| X 2 
D|-------------------------------------------|
A|-------------------------------------------|
E|-------------------------------------------|

Gtr 2
e|----------------------|
B|----------------------|
G|----9---9----11----12-| x 2
D|----------------------|
A|--10--10---12----14---|
E|-8---8---10----12-----|

Gtr 3
e|---------------|
B|---------------|
G|-12-11-9-----9~| x 2
D|---------12~---|
A|---------------|
E|---------------|

Gtr 4
e|-----------|-----------|
B|-----------|-----------|
G|-----7-----|-----7-9---|
D|-9-9---9-9-|-9-9-----9-|
A|-----------|-----------|
E|-----------|-----------|


Verse 3

Gtr 1
e|-12-----12----12----12----10----10--7--7---|
B|------12----12----12----10----10---8--8----|
G|----12----12----12----11----11----9--9-----| x 7
D|-------------------------------------------|
A|-------------------------------------------|
E|-------------------------------------------|

Gtr 2
e|-10-----|-10-----|-10-----|-19-17-----------|-19-17-----------|-15-14-----------|-15-14-----------|
B|----7-8-|----7-8-|----7-8-|-------20-19--20-|-------20-19--20-|-------17-15--17-|-------17-15--17-|
G|--------|--------|--------|-----------------|-----------------|-----------------|-----------------|
D|--------|--------|--------|-----------------|-----------------|-----------------|-----------------|
A|--------|--------|--------|-----------------|-----------------|-----------------|-----------------|
E|--------|--------|--------|-----------------|-----------------|-----------------|-----------------|


Chorus 3

Gtr 1
   G        D        Em       C
e|-3--------5--------7--------8-------|
B|-3--------7--------8--------8-------|
G|-4--------7--------9--------9-------| Strike these chords as appropriate 
D|-5--------7--------9--------10------| when they are show. Listen to the song.
A|-5--------5--------7--------10------|
E|-3--------5--------7--------8-------|

Gtr 2
   G            D        Em         C            
e|-----------------12-14-12-12-1212-15-14-12----|
B|-12--13--13--/15-------12-12-1212----------15-|
G|-12--12--12--/14------------------------------|
D|----------------------------------------------|
A|----------------------------------------------|
E|----------------------------------------------|
  G         D           Em           C
|--------------------------------------------------|
|-12-13-12--1010-12-13--12-12-121212-12121512-1512-|
|-12-12-12--1111-11-11--12-12-121212-12121212-1212-|
|-----------------------14-14-141414-14141414-1414-|
|--------------------------------------------------|
|--------------------------------------------------|

   G            D        Em         C                      
e|-----------------12-14-12-12-1212-15-14-12----|
B|-12--13--13--/15-------12-12-1212----------15-|
G|-12--12--12--/14------------------------------| 
D|----------------------------------------------|
A|----------------------------------------------|
E|----------------------------------------------|

  
  G         D           Em                            C
|----------------------------------------------------------------------------------|
|-12-13-12--1010-12-13--12-1212-1212--12-1212-121212--15-1515-1515--15-1515-151515-|
|-12-12-12--1111-11-11--12-1212-1212--12-1212-121212--12-1212-1212--12-1212-121212-|
|-----------------------14-1414-1414--14-1414-141414--14-1414-1414--14-1414-141414-|
|----------------------------------------------------------------------------------|
|----------------------------------------------------------------------------------|


Solo

Gtr 1
e|-12-----12----12----12----10----10--7--7---|
B|------12----12----12----10----10---8--8----|
G|----12----12----12----11----11----9--9-----| x 6
D|-------------------------------------------|
A|-------------------------------------------|
E|-------------------------------------------|

Gtr 2
e|---------------|
B|---------------|
G|-12-11-9-----9~| x 6
D|---------12~---|
A|---------------|
E|---------------|


e|-1210-1210-1210-1210-1210-------------1210-1210-1210-1210-1210------------|
B|--------------------------1212-12-12---------------------------1212-12-12-|
G|--------------------------------------------------------------------------|
D|--------------------------------------------------------------------------|
A|--------------------------------------------------------------------------|
E|--------------------------------------------------------------------------|

e|-----------------------------------10-12-10-12-10-12-10------|
B|-131313-13-13-12-------------------12-13-12-13-12-13-12------|
G|-----------------12-1212-11/121212----------------------1212-|
D|-------------------------------------------------------------|
A|-------------------------------------------------------------|
E|-------------------------------------------------------------|

e|-1210-1210-1210-1210-1210-------------1210-1210-1210-1210-1210------------|
B|--------------------------1212-12-12---------------------------1212-12-12-|
G|--------------------------------------------------------------------------|
D|--------------------------------------------------------------------------|
A|--------------------------------------------------------------------------|
E|--------------------------------------------------------------------------|
                                      Half Bend
e|------------------------------------------------|
B|-15-1515-151515-13-1313-1313-12--12------12^-15-|
G|------------------------------------------------|
D|------------------------------------------------|
A|------------------------------------------------|
E|------------------------------------------------|

____________________________________________________________________________________

I got dosed by you and 
Closer than most to you and 
What am I supposed to do
 
Take it away I never had it anyway 
Take it away and everything will be okay 

In you a star is born and 
You cut a perfect form and 
Someone forever warm 

Lay oh lay oh lay oh lay oh 
Lay oh lay oh lay oh lay oh 

Way upon the mountain where she died 
All I ever wanted was your life 
Deep inside the canyon I can't hide 
All I ever wanted was your life 

Show love with no remorse and 
Climb on to your seahorse and 
This ride is right on corse
 
This is the way I wanted it to be with you 
This is the way that I knew that it would be with you 

Lay oh lay oh lay oh lay oh 
Lay oh lay oh lay oh lay oh  

Way upon the mountain where she died 
All I ever wanted was your life 
Deep inside the canyon I can't hide 
All I ever wanted was your life 

I got dosed by you and 
Closer than most to you and 
What am I supposed to do 

Take it away I never had it anyway 
Take it away and everything will be okay 

Way upon the mountain where she died 
All I ever wanted was your life 
Deep inside the canyon I can't hide 
All I ever wanted was your life 
Tap to rate this tab
 
# A B C D E F G H I J K L M N O P Q R S T U V W X Y Z