Guitaretab - guitar tabs
Song name
# A B C D E F G H I J K L M N O P Q R S T U V W X Y Z

Red Hot Chili Peppers - The Zephyr Song tab

This is easier to play and im pretty sure this is the way the chilli peppers play it.  Enjoy and if any corrections send them to appendix56@hotmail.com. Thanks!

Intro:
e|--3---1----------0-----------0------|
B|-1---0---0---1--1--0-3--0----1------|
G|2---0---0---0--2--0----0----0-------|
D|-------2---3----------2-----3-------|
A|------------------------------------|
E|------------------------------------|

Verse:
e|--0--3-1-0--------------------------|
B|-1-1-------0-3--6-5-3--0--3-5-1--1-5-3-1-0-1|
G|2---------0---0-------0-0-------0---|
D|---------------------2---------3----|
A|------------------------------------|
E|------------------------------------|

Verse:
e|--0--3-5-1--------------------------|
B|-1-1-------0-3--6-5-3--0--3-5-1--1--1|
G|2---------0---0-------0-0-------0--0|
D|---------------------2---------3--3-|
A|------------------------------------|
E|------------------------------------|

Verse:
e|--0--3-1-0--------------------------|
B|-1-1-------0-3--6-5-3--0--3-5-1--1-5-3-1-0-1|
G|2---------0---0-------0-0-------0---|
D|---------------------2---------3----|
A|------------------------------------|
E|------------------------------------|

Verse: 
e|--0--3-5-1--------------------------|
B|-1-1-------0-3--6-5-3--0--3-5-1--1--1|
G|2---------0---0-------0-0-------0--0|
D|---------------------2---------3--3-|
A|------------------------------------|
E|------------------------------------|

Chorus:
     D        G          A   
e|2----------3-----------0--------------|
B|3--X8------3--X6-------2--X6----------|
G|2----------0-----------2--------------|
D|0----------0-----------2--------------|
A|x----------2-----------0--------------|
E|x----------3-----------x--------------|

Verse:
e|--0--3-1-0--------------------------|
B|-1-1-------0-3--6-5-3--0--3-5-1--1-5-3-1-0-1|
G|2---------0---0-------0-0-------0---|
D|---------------------2---------3----|
A|------------------------------------|
E|------------------------------------|

Verse: 
e|--0--3-5-1--------------------------|
B|-1-1-------0-3--6-5-3--0--3-5-1--1--1|
G|2---------0---0-------0-0-------0--0|
D|---------------------2---------3--3-|
A|------------------------------------|
E|------------------------------------|

Chorus:
     D        G          A   
e|2----------3-----------0--------------|
B|3--X8------3--X6-------2--X6----------|
G|2----------0-----------2--------------|
D|0----------0-----------2--------------|    X3
A|x----------2-----------0--------------|
E|x----------3-----------x--------------|

Solo:
e|12-10-12-12-12-10-12-------10-8-10-10-10-8-10-12------|
B|--------------------12~-10----------------------12~-10|
G|--------------------------------------|
D|--------------------------------------|    X2
A|--------------------------------------|
E|--------------------------------------|

After Solo:
  Am    G   Em    F
e|0-----3----0----0-------------------------|
B|1-----3----0----1-------------------------|
G|2-----0----0----0-------------------------|
D|2-----0----2----2-------------------------|
A|0-----2----2----3-------------------------|
E|x-----3----0----0-------------------------|

Chrous: 
     D        G          A   
e|2----------3-----------0--------------|
B|3--X8------3--X6-------2--X6----------|
G|2----------0-----------2--------------|
D|0----------0-----------2--------------|  play till end of song  
A|x----------2-----------0--------------|
E|x----------3-----------x--------------|

Solo no#2:
e|--------14-------14----14-------14-------14----14--------15-------15----15-|
B|--15-15----15-15----15----15-15----15-15----15-----------------------------|
G|---------------------------------------------------12-12----12-12----12----|
D|---------------------------------------------------------------------------|
A|---------------------------------------------------------------------------|
E|---------------------------------------------------------------------------|
                              
e|--------17-------17----17--------14-------14----14-------14-------14----14-|
B|---------------------------15-15----15-15----15----15-15----15-15----15----|
G|--14-14----14-14----14-----------------------------------------------------|
D|---------------------------------------------------------------------------|
A|---------------------------------------------------------------------------|
E|---------------------------------------------------------------------------|
    	                   		      
e|--------15-------15----15-------17-------17----17-------14-------14--------|
B|--------------------------------------------------15-15----15-15----15-15--|
G|--12-12----12-12----12----14-14----14-14----14-----------------------------|
D|---------------------------------------------------------------------------|
A|---------------------------------------------------------------------------|
E|---------------------------------------------------------------------------|
		          		       
e|-15-------14-------14-----------15-------15----15-------17-------17----17--|
B|----15-15----15-15----15---------------------------------------------------|
G|--------------------------12-12----12-12----12----14-14----14-14----14-----|
D|---------------------------------------------------------------------------|
A|---------------------------------------------------------------------------|
E|---------------------------------------------------------------------------|
   					     
e|-------14-------14-------15-------14-------14-----------15-------15----15--|
B|-15-15----15-15----15-15----15-15----15-15----15---------------------------|
G|--------------------------------------------------12-12----12-12----12-----|
D|---------------------------------------------------------------------------|
A|---------------------------------------------------------------------------|
E|---------------------------------------------------------------------------|
                            
e|-------17-------17----17---17----------------------------------------------|
B|-----------------------------------------------END ON D----------------------------|
G|-14-14----14-14----14------------------------------------------------------|
D|---------------------------------------------------------------------------|
A|---------------------------------------------------------------------------|
E|---------------------------------------------------------------------------|

[ Tab from: http://www.guitaretab.com/r/red-hot-chili-peppers/25922.html ]
Related for The Zephyr Song tab