Song name
# A B C D E F G H I J K L M N O P Q R S T U V W X Y Z

Red Hot Chili Peppers - Dont Forget Me Live tab

This is the Intro of "Don't Forget Me" by RHCP, that John played live at La Cigale.
Its the best version of the song and is quite easy to play. So, here I have tabbed the 
intro part.
Hope you like it.

Tunning: eBGDAE (Standard Tunning)
b: bend
pb: pre-bend
r: release
\: Slide Up.
/: Slide Down
vvv: Vibrate
h: Hammer on
p: Pull Off

e||-----12--15--19-17----------------------|
B||---------------------17b18--------------|
G||-14-------------------------------------|
D||----------------------------------------|
A||----------------------------------------|
E||----------------------------------------|

e||----------------------------------------|
B||-19--pb18-17vvv-------------------------|
G||------------------17--19b21r19--17------|
D||----------------------------------------|
A||----------------------------------------|
E||----------------------------------------|

let it ring (to the end of intro)

e||------------------------------------------------|
B||-------17-----17------------13-------13------13-|
G||----17-----17----17-/----14-------14-------14---|
D||-19-------------------15-------15-------15------|
A||------------------------------------------------|
E||------------------------------------------------|

e||-------12-----12-15-----12-15--------10-------13-----13------|
B||----13-----13--------13-----------12-------12----------------|
G||-12----------------------------12-------13--------13----13---|
D||-------------------------------------------------------------|
A||-------------------------------------------------------------|
E||-------------------------------------------------------------|

e||----12-----12-----12p13p12----------8-----8--8h10--8----|
B||----13--13----14------------13-----10----------------10-|
G||-14-------------------------14--10----10----------------|
D||--------------------------------------------------------|
A||--------------------------------------------------------|
E||--------------------------------------------------------|

e||-12-15------15-12------------15---------16vvv---17vvv----|
B||-13----13-----------------15---------15------------------|
G||-----------------------16---------16---------------------|
D||--------------------17-----------------------------------|
A||---------------------------------------------------------|
E||---------------------------------------------------------|
Tap to rate this tab
 
# A B C D E F G H I J K L M N O P Q R S T U V W X Y Z