Red Hot Chili Peppers - Subway To Venus tab

Hey, heres a GOOD tab for this song, felt a real need to do one due to how bad the other 
tabs are on the internet. anyways, here it is....

Intro

---------10-10-10-10----------------------------10-10-10-10-------------------|
----9-7--9--9--9--9-----9--7---7\6/7-7-----9-7--9--9--9--9--------------------|
----9-7--9--9--9--9-----9--7---6\5/6-6-----9-7--9--9--9--9---7-7-7-7-7-7-7-7--|
----9-7-----------------9--7---------------9-7--------------------------------|
----7-5-----------------7--5---5\4/5-5-----7-5--------------------------------|
--0-------------------0------------------0-------------------5-5-5-5-5-5-5-5--|

This bit only happens this one time at the start (going into verse)

--------------------|
--------------------|
--------------------|
--------------------|
---------5----------|
-4-5-6-7---7-6-5----|
Verse
(mutes are hard to show, just feel it)
---------------------------------------|
---7-x-7-x-7--------------8------------|
---7-x-7-x-7-----with-----7------------|
---6-x-6-x-6--ocassional--6------------|
---7-x-7-x-7--------------7------------|
---------------------------------------|

Little man step inside....
                                 1st               2nd (repeat not slide)
----------------------8---------|-----------------|--8-/-/-/-/---|
-----5-x-----5-x------7-----x-5-|-----------------|--7-/-/-/-/---|
-----5-x-----5-x------------x-5-|-----------------|--7-/-/-/-/---|
--5h7--x--5h7--x-5h7----5h7-x---|-5h7p5-----------|--------------|
--------------------------------|--------7-5------|--------------|
--------------------------------|------------8----|--------------|

Verse

The axis bold as i love you....

-12-12-12-12-12--------14-14-14-14----|
-13-13-13-13-13-etc.---13-13-13-13----|
-12-12-12-12-12--------14-13-13-13----|
--------------------------------------|
--------------------------------------|
--------------------------------------|

Intro

Chorus

--------------x-x-x-x-------------------------------------------------------|
--------------x-x-x-x---------------9-7-------------------------------------|
--------------x-x-x-x---------------9-7---------------10-10-------12-12-12--|
----x-9p7-----x-x-x-x------7--------9-7-----/9-7------10-10-10-10-12-12-12--|
----------9-7-x-x-x-x-6h7/9--9-7-----------------9-7--8--8--10-10-10-10-10--|
--7-----------x-x-x-x------------7--------7-----------------8--8------------|

Verse

Chorus

Breakdown...

---------------------------------------|
--10------------12-------15------------|
--10-repeat-to--12-again-15-end chord--|
--10--rhythm----12-------15------------|
----------------11-------13------------|
---------------------------------------|

Verse (intro throughout)

Chorus

End

-------------------|------------------------|
--x-x-x-x-x-x-x-x--|------------------------|
--7-7-7-7-7-7-7-7--|------------------------|
--x-x-x-x-x-x-x-x--|------------------------|
--x-x-x-x-x-x-x-x--|-7-----------5---5-6-7--|
-------------------|---0-4-5-6-7---7--------|

And theres the tab! The solos already been done by someone else so i guessed i had my 
work cut out there! Enjoy :) Questions... joshdh95@hotmail.co.uk
Tap to rate this tab
 
# A B C D E F G H I J K L M N O P Q R S T U V W X Y Z