Red Hot Chili Peppers - Otherside Acoustic tab

---------------------------------------------------------------------
Acoustic cover of
Red Hot Chili Peppers - Otherside

Tabbed by egidio, February 2011

Tuning : Standard


Hi. This is my acoustic cover of Otherside. It is inspired by this guy
on Youtube : http://www.youtube.com/watch?v=h0PpKYg47n4 .
I liked his version, but i did not like the tabs he has for download.
So i came up with an own version, and made a tab for it.
It is pretty easy to play, just place your fingers like playing the
chords Am, F, C and G and pick (Am, Em and G for the verse).

Have fun.

----------------------------------------------------------------------

INTRO
 1 2 3 4 1 2 3 4 1 2 3 4 1 2 3 4
|--------------------------------|
|-------------0-----1------------|
|--------2--2--20--0--0----------|
|2--2--2-3--------2----2-0-----0-|
|0-------3-------3------3---3----|
|------------------------3-------|

 1 2 3 4 1 2 3 4 1 2 3 4 1 2 3 4
|--------------------------------|
|-------------0-----1------------|
|--------2--2--20--0--0----------|
|2--2--2-3--------2----2-0-------|
|0-------3-------3------3---3--2-|
|------------------------3-------|


CHORUS
 1 2 3 4 1 2 3 4 1 2 3 4 1 2 3 4
|--00--------------------0--------|
|--11--3-1-31--1-1--1--1---3-1-0--|
|--22--2-2-------2--2--2----------|
|---------------------------------|
|0----0-0--------3-3--3-----------|
|--------1----1----------33-3-3-3-|

 1 2 3 4 1 2 3 4 1 2 3 4 1 2 3 4
|------------------------0--------|
|----0--------0-----1------3-1-0--|
|2--2-2-2---2--20--0--0-----------|
|--2---2---3------2----2----------|
|0--------3------3------3---------|
|--------1---------------33-3-3-3-|

 1 2 3 4 1 2 3 4 1 2 3 4 1 2 3 4
|------------------------0--------|
|1--1--3----1----111-1-1---3-1-0--|
|2--2--2----2----222-2-2----------|
|----------3----------------------|
|0-0--0---3------3--3-3-3---------|
|--------1---------------33-3-3-3-|


VERSE
 1 2 3 4 1 2 3 4 1 2 3 4 1 2 3 4
|---------------------------------|
|--11--1----0---0--11--1-0-30-----|
|--22--2---0---0---22--2------0-0-|
|-2-------2---2---2------22----2--|
|0----0-0--------0----0-0---------|
|--------0---------------0--------|

 1 2 3 4 1 2 3 4 1 2 3 4 1 2 3 4
|--------------------------------|
|--11--1----0-0000-00--1---------|
|--22--2---0-----0-00------22----|
|-2-------2---------------2------|
|0----0-0----------------0--2----|
|--------0-------3---------------|


BRIDGE
 1 2 3 4
|---------|
|---------|
|2-2-2-2--|
|---------|
|-0-0-0-0-|
|---------|


You could play

INTRO
CHORUS
VERSE
VERSE
BRIDGE
CHORUS


----------------------------------------------------------------------
Tap to rate this tab
 
# A B C D E F G H I J K L M N O P Q R S T U V W X Y Z