Red Hot Chili Peppers - Blue Monday tab

Transcribed by: Joe Klein
Live Manchester 2003/03/11
John did a tiny cover of this New Order song.

-|-----------|-------------|------------|-----------|-------------------------|
-|-----------|-------------|------------|-----------|-------------------------|
-|---7----7--|-------------|------------|-----------|-------------------------|
-|-----------|----5-----5--|---7-----7--|---7---7---|-------------------------|
-|-5----5----|-------------|-0----0-----|-0---0-----|-------------------------|
-|-----------|--3----3-----|------------|-----------|-------------------------|

-|-----------|-------------|------------|-----------|-------------------------|
-|-----------|-------------|------------|-----------|-------------------------|
-|---5----5--|-------------|------------|-----------|-------------------------|
-|-----------|----5-----5--|---7-----7--|---7---7---|-------------------------|
-|-3----3----|-------------|-0----0-----|-0---0-----|-------------------------|
-|-----------|--3----3-----|------------|-----------|-------------------------|

and repeat...
Tap to rate this tab
 
# A B C D E F G H I J K L M N O P Q R S T U V W X Y Z