Guitaretab - guitar tabs
Song name
# A B C D E F G H I J K L M N O P Q R S T U V W X Y Z

Red Hot Chili Peppers - I Like Dirt tab

Song: I like dirt
Artist: Red Hot Chili Peppers
Album: Californication (1999)

tabbed by Francy [ITA]
My name is Francesco Giampiccolo, if you have any question ask me... My e-mail address 
francesco.giampiccolo@virgilio.it


Standard Tuning


Intro:

|--7-7--------7-7--------7-7--------7-7---------------|
|--7-7--------7-7--------7-7--------7-7---------------|
|--7-7--------7-7--------7-7--------7-7---------------|
|-----------------------------------------------------|
|-------------------------------------------x-x-x-x---|
|-----------------------------------------------------|


Verse and chorus:

|--7---7------10-x-7---10-10-10-7---x--------x-x-7-7-------|
|--7---7-------x-x-7----x--x--x-7---x--------x-x---7---x---|
|--7---7-------7-x-7----7--7--7-7---x-7------x-x---7-------|
|----------------------------------------------------------|
|----------------------------------------------------------|
|----------------------------------------------------------|

  "Some come up and some come young..."

|--10-10-------|
|---7--7-------|
|---7--7---7---|
|--------------|
|--------------|
|--------------|


Bridge:

|-----------------------|
|-----------------------|
|--7----------7---------| play twice
|----9---9------9---9---|
|-----------------------|
|-----------------------|

  "I like dirt, I like dirt..."


Verse:  ***

|--x-x-7-----x-x-7-x---x---7---10-10-10---10---10----------|
|--x-x-7-----x-x-7-x---x---7----x--x--x----x----x----------|
|--x-x-7-----x-x-7-x---x---7----7--7--7----7----7------7---|
|----------------------------------------------------------|
|----------------------------------------------------------|
|----------------------------------------------------------|

|--x---7-7-------x-10---10-x-x-10---7---7-7---7---10---10-------|
|--x---7-7-------x--x----x-x-x--x---7---7-7---7----x----x-------|
|--x---7-7-9-7---x—-7----7-x-x--7---7---7-7-9-7----7----7-----|
|---------------------------------------------------------------|
|---------------------------------------------------------------|
|---------------------------------------------------------------|

|--x-10-----7---x-7-7-7-7---|
|--x--x-----7---x-7-7-7-7---|
|--x--7-----7---x-7-7-7-7---|
|---------------------------|
|---------------------------|
|---------------------------|


Chorus:

|--7---7------10-x-7---10-10-10-7---x--------x-x-7-7-------|
|--7---7-------x-x-7----x--x--x-7---x--------x-x---7---x---|
|--7---7-------7-x-7----7--7--7-7---x-7------x-x---7-------|
|----------------------------------------------------------|
|----------------------------------------------------------|
|----------------------------------------------------------|

|--10-10-------|
|---7--7-------|
|---7--7---7---|
|--------------|
|--------------|
|--------------|


Bridge:

|-----------------------|
|-----------------------|
|--7----------7---------|  play four times
|----9---9------9---9---|
|-----------------------|
|-----------------------|

 "I like dirt, I like dirt..."


Verse: ***
[ Tab from: http://www.guitaretab.com/r/red-hot-chili-peppers/26613.html ]
|--x---x-x-x---7-------------22---x-22---22-x-x-7---x---|
|--x---x-x-x---7---8---9-7----x---x--x----x-x-x-7---x---|
|--x-7-x-x-x---7---8---9-7---19---x-19---19-x-x-7---x---|
|-------------------------------------------------------|
|-------------------------------------------------------|
|-------------------------------------------------------|

|--------------x-10---7-x-x-7---7---x-10-10-10-10---10---|
|--9-7---------x--7---7-x-x-7---7---x--7--7--7--7----x---|
|--7-7---x-----x--7---7-x-x-7---7---x--7--7--7--7----7---|
|--------------------------------------------------------|
|--------------------------------------------------------|
|--------------------------------------------------------|


Bridge twice


|--10-x-x-7-x-7--------x-7-7-7-7---x-7---7-x-x-7---|
|---x-x-x-7-x-7--------x-7-7-7-7---x-7---7-x-x-7---|
|---7-x-x-7-x-7--------x-7-7-7-7---x-7---7-x-x-7---|
|--------------------------------------------------|
|--------------------------------------------------|
|--------------------------------------------------|

|--7-x-x-7-7-------7---7-----10---7-------------7-7---7---|
|--7-x-x-7-7-------7---7-x----7---7-----------x-7-7---7---|
|--7-x-x-7-7---7---7---7-x----7---7-----------x-7-7---7---|
|---------------------------------------------------------|
|---------------------------------------------------------|
|---------------------------------------------------------|


Interlude:

|----------------------------------------------|
|----------------------------------------------|
|--7-------------------9-----------------------|
|----9-11-9-13-9-7-9-----11-13-11-15-11-9-11---|
|----------------------------------------------|
|----------------------------------------------|

|-----------------------------------------------------|
|-----------------------------------------------------|
|--11-----------------------13------------------------|
|-----13-15-13-17-13-11-13-----15-17-15-19-15-13-15---|
|-----------------------------------------------------|
|-----------------------------------------------------|


Verse: One of the verse riffs is resumed

Bridge 4 times

Solo:

|---------------------------------------------------------|
|----------------------------------9-7---9---9b-----------|
|--------------5-----5-7b-7575757/---/9-----9-------------|
|-----5-7-7------7----------------------------------------|
|--/7-----------------------------------------------------|
|---------------------------------------------------------|

|--------------------------------------------------------|
|-------------------------------------7h10p7----7h10p7---|
|---------------7-7-------------9b-9b--------9b----------|
|--9-9-9-9-9----------9-9-9-9----------------------------|
|--------------------------------------------------------|
|--------------------------------------------------------|


|-----------------------------------------|
|--------7h10p7----7h10p7h10p7----7-10b---|
|--9b-9b--------9b-------------9b---------|
|-----------------------------------------|
|-----------------------------------------|
|-----------------------------------------|

Outro:

|--x-x-7---x-x-7---x-x-7--x--x-x-7---x-7-x--x--x-7-x---|
|------------------------------------------------------|
|------------------------------------------------------|
|------------------------------------------------------|
|------------------------------------------------------|
|------------------------------------------------------|

|--x-x-7-x--x-x-7-x--7-x-----|
|----------------------------|
|----------------------------|
|----------------------------|
|----------------------------|
|----------------------------|
Related for I Like Dirt tab