Song name
# A B C D E F G H I J K L M N O P Q R S T U V W X Y Z

Red Hot Chili Peppers - Theyre Red Hot tab

They're Red Hot
RHCP
Blood Sugar Sex Magik


1,2,1,2,3,4
hot tamales and they're red hot...
e----8-----7----5-5-5-5----5----3----8--8--8--8----------------|
B----8-----7----5-5-5-5----7----3----8--8--8--8----------------|
G----9-----8----6-6-6-6----5----4----9--9--9--9----------------|
D----10----7----5-5-5-5----7----5----10-10-10-10---------------|
A----10----9----7-7-7-7--5-5----5----10-10-10-10---------------|
E--8-8---7-7--5-5-5-5-5-------3-3--8-8--8--8--8----------------|


e----8-----7----5-5-5-5----5-5-5-5----3-3-3-3--------|
B----8-----7----5-5-5-5----7-7-7-7----3-3-3-3--------|
G----9-----8----6-6-6-6----5-5-5-5----4-4-4-4--------|
D----10----7----5-5-5-5----7-7-7-7----5-5-5-5--------|
A----10----9----7-7-7-7--5-5-5-5-5----5-5-5-5--------|
E--8-8---7-7--5-5-5-5-5-------------3-3-3-3-3--------|

got two for a nickel, four for a dime...
e--8-----8---5----5--4---------|
B--8-----8---5----5--4---------|
G--9-----9---6----6--5---------|
D--10----10--7----7--4---------|
A--10----10--7----7--6---------|
E--8-----8---5----5--4---------|


etc etc
Tap to rate this tab
 
# A B C D E F G H I J K L M N O P Q R S T U V W X Y Z