Song name
# A B C D E F G H I J K L M N O P Q R S T U V W X Y Z

Red Hot Chili Peppers - Soul To Squeeze tab

#-----------------------------------------------------------------------------#
#-- File created with Instab - http://www.pconline.com/~smcarey/instab.html --#
#-----------------------------------------------------------------------------#

Red Hot Chili Peppers
Soul to Squeeze
Tabbed By Saverain

\ slide down
/ slide up
h hammer on
p pull off
b bend


-------|----------------------------------------------------------------------|
-------|-----------------------------------------------5----------------------|
-------|-------2----5\4-2---------2-------2------2-4/6---6p4-------2----5\4-2-|
-------|----2-----------------2h4------2-------2----------------2-------------|
-------|-0--------0-------0-0-------0--------0---------------0--------0-------|
-------|----------------------------------------------------------------------|
         Intro

------------------------------------------------------------------------------|
------------------------------------------------------------------------------|
---------2-------2------------------------2----5\4-2---------2-------2------2-|
-----2h4------2-------2---2----2-------2-----------------2h4------2-------2---|
-0-0-------0--------0---0-----------0--------0-------0-0-------0--------0-----|
----------------------------3b---3b-------------------------------------------|


-----5-----------------------------------------------------------------|------|
------------------------------------------------2--2-2-2-2-2-2-2-2-2-2-|------|
-4/6---4h6p4-------2----5\4-2---------2-2-2-2-2-2--2-2-2-2-2-2-2-2-2-2-|------|
----------------2-----------------2h4---2-2-2-2-2--2-2-2-2-2-2-2-2-2-2-|------|
-------------0--------0-------0-0-------0-0-0-0------------------------|------|
-----------------------------------------------------------------------|------|


-------|-----------------------------------------------------------------------|
-------|-----------------------------------------------------------------------|
-------|--12/14----12/14----17/19--19\17--14--17--14-\-10-\9-/10-/14---12/14---|
-------|-----------------------------------------------------------------------|
-------|-----------------------------------------------------------------------|
-------|-----------------------------------------------------------------------|
        Guitar 1                                    ---------------------------|

-------------------------------------------------|----------------------------|
-13----13----------------------------------------|----------------------------|
----14----14-vvv-17/19-vvv-17/19-vv-\-17-vv-14-\-|----------------------------|
-------------------------------------------------|----------------------------|
-------------------------------------------------|----------------------------|
-------------------------------------------------|----------------------------|


-|----------------------------------------------------------------------------|
-|---------------10-------------8---------------------------------------------|
-|-------x-10-10-10--------x-9--9-----------x-10-10-10-7---10-----------------|
-|-------x-10-10-10-x---x--x-10-10-x----x---x-12-12-12-x---12--12-12-12-12-12-|
-|-------x-x--x-----x---x--x-x-----x----x---x-x--x--x--x---x---x--x--x--x--x--|
-|-3--1-------------6/8-8----------8/10-10---------------------10-10-10-10-10-|
   Guitar 2

----------------------------------------------0-0-0-0-0-----------------------|
----------------------------------------------6-6-6-6-6---------------10------|
----------------------------------------------7-7-7-7-7-------x-10-10-10------|
-12-x--x--x--x--x--x--x-x-x-x-x-x-x---x-x-x-x-----------x-x---x-10-10-10-x----|
-x--x--x--x--x--x--x--x-x-x-x-x-x-x---x-x-x-x-----------x-x---x-x--x-----x----|
-10-13-13-13-13-13-13-x-x-x-x-x-x-x---x-x-x-x-----------x-x-1------------6/8--|
                      C5              A#5

------------------------------------------------------------------------------|
--------8---------------------------------------------------------------------|
---x-9--9----------x-10-10h12p10-----7---10-----------------------------------|
-x-x-10-10-x----x--x-------------x---x---12--12-12-12-12-12-12-x--x--x--x--x--|
-x-x-x-----x----x--x-------------x---x---x---x--x--x--x--x--x--x--x--x--x--x--|
-8---------8/10-10---------------6-----------10-10-10-10-10-10/13-13-13-13-13-|


-------------------------|----------------------------------------------------|
----------10---------6---|----------------------------------------------------|
-------------9-------7---|----------------------------------------------------|
-x--x-x-x------10----x---|----------------------------------------------------|
-x--x-x-x----------------|----------------------------------------------------|
-13-x-x-x----------------|----------------------------------------------------|


-|------------------------------------------------------------------------|---|
-|------------------------------------------------------------------------|---|
-|------------------------------------------------------------------------|---|
-|-------------------------------8-----------------------10---------------|---|
-|---------------------------------------------8--------------------------|---|
-|-1-1-1h5-8-8--8h10-10-13-13-6-----10-10-5-10---10-5-8------6--5h6h8p6p5-|---|
  Bass Verse


---------|--------------------------------------------------------------------|
---------|------------10--------------8---------------------------------------|
---------|----x-10-10-10---------x-9--9-----------x-10-10-10-7---10-----------|
---------|-10-x-10-10-10--x---x--x-10-10-x----x---x-12-12-12-x---12--12-12-12-|
---------|-x--x--x-x------x---x--x-x-----x----x---x-x--x--x--x---x---x--x--x--|
---------|-13-------------6/8-8----------8/10-10---------------------10-10-10-|
          Guitar 2 Verse

----------------------------------------------------0-0-0-0-0-----------------|
----------------------------------------------------6-6-6-6-6-----------------|
----------------------------------------------------7-7-7-7-7--------x-10-10--|
-12-12-12-x--x--x--x--x--x--x-x-x-x-x-x-x---x-x-x-x-----------x-x-10-x-10-10--|
-x--x--x--x--x--x--x--x--x--x-x-x-x-x-x-x---x-x-x-x-----------x-x-x--x--x-x---|
-10-10-10-13-13-13-13-13-13-x-x-x-x-x-x-x---x-x-x-x-----------x-x-13----------|


------------------------------------------------------------------------------|
-10-------------8-------------------------------------------------------------|
-10--------x-9--9-----------x-----------------7---10--------------------------|
-10-x---x--x-10-10-x----x---x-10-10h12p10-x---x---12--12-12-12-12-12-12-x--x--|
----x---x--x-x-----x----x---x-------------x---x---x---x--x--x--x--x--x--x--x--|
----6/8-8----------8/10-10----------------6-----------10-10-10-10-10-10-13-13-|


-------------------------------------0-0-0-0-0-|------------------------------|
-------------------------------------6-6-6-6-6-|------------------------------|
-------------------------------------7-7-7-7-7-|------------------------------|
-x--x--x--x--x-x-x-x-x-x-x---x-x-x-x-----------|------------------------------|
-x--x--x--x--x-x-x-x-x-x-x---x-x-x-x-----------|------------------------------|
-13-13-13-13-x-x-x-x-x-x-x---x-x-x-x-----------|------------------------------|



--|------------------------------------------------------------------------|--|
--|------13---10----------------x-10--10--10--10--10--10--10--x--10--x-x-6-|--|
--|------9----9----10-------9---x-9---9---9---9---9---9---9---x--10--x-x-7-|--|
--|-10---10---12---12--x----10--x-12--12--12--12--12--12--12--x--12--x-x-x-|--|
--|-x--------------12--x----x----------------------------------------------|--|
--|-13-----------------13--------------------------------------------------|--|
   Chorus

-------|----------------------------------------------------------------------|
-------|----------------------------------------------------------------------|
-------|-14\12-10--12-/14--10---12/14-14-14-17--14--10/12--10--7--10--14/12---|
-------|----------------------------------------------------------------------|
-------|----------------------------------------------------------------------|
-------|----------------------------------------------------------------------|
         Solo

------------------------------------------------------------------|-----------|
------------------------------------------------------------------|-----------|
-10--12/14--10/12-\10--7---12/14-14-14-17b18r17-14-12/14-12-10-9--|-----------|
------------------------------------------------------------------|-----------|
------------------------------------------------------------------|-----------|
------------------------------------------------------------------|-----------|



-------|---------10-----------------------------------------|--|--------------|
-------|-----10--8-------------------1---------1------------|--|--------------|
-------|-----10--9-----------0-0-0h2-----0-0h2----2-2-0-0-0-|--|--------------|
-------|-12--12------10--10--0-0-0h2-----0-0h2----2-2-0-0-0-|2x|--------------|
-------|-x-----------x---x---0-0-0-------0-0------0-0-0-0-0-|--|--------------|
-------|-10----------8---8----------------------------------|--|--------------|
   Basic Rhythm of Bridge

-------|---------8-----------------------------------------|------------------|
-------|-----10--8------------------1---------1------------|------------------|
-------|-----10--9----------0-0-0h2-----0-0h2----2-2-0-0-0-|------------------|
-------|-12--12-----10--10--0-0-0h2-----0-0h2----2-2-0-0-0-|------------------|
-------|-x----------x---x---0-0-0-------0-0------0-0-0-0-0-|------------------|
-------|-10---------8---8----------------------------------|------------------|



-------|---------10---------10---8----8----|----------------------------------|
-------|-----10--8----------8----6----6----|----------------------------------|
-------|-----10--9----------9----7----7----|----------------------------------|
-------|-12--12-----10--10-----------------|----------------------------------|
-------|-x----------x---x------------------|----------------------------------|
-------|-10---------8---8------------------|----------------------------------|



-----|------------------------------------------------------------------------|
-----|-----10----------10---------10----10------8-----------8-----------8-----|
-----|-10--10--x-x-10--10--x-x-10-10-10-10--9---9---x-x-9---9---x-x-9---9---x-|
-----|-10--10--x-x-10--10--x-x-10-10-10-10--10--10--x-x-10--10--x-x-10--10--x-|
-----|-12------x-x-12------x-x-12----12-----10------x-x-10------x-x-10------x-|
-----|------------------------------------------------------------------------|
       Chorus Out


------------------------------------------------------------------------------|
------8-----8-------10----------10---------10----10-----6---------6--------6--|
-x-9--9--9--9---10--10--x-x-10--10--x-x-10-10-10-10--7--7--x-x-7--7--x-x-7-7--|
-x-10-10-10-10--12--12--x-x-12--12--x-x-12-12-12-12--8--8--x-x-8--8--x-x-8-8--|
-x-10----10-----12------x-x-12------x-x-12----12-----8-----x-x-8-----x-x-8----|
------------------------------------------------------------------------------|


------------------------------------------------------------------------------|
---6------10----------10---------10----10------8-----------8-----------8------|
-7-7--10--10--x-x-10--10--x-x-10-10-10-10--9---9---x-x-9---9---x-x-9---9---x--|
-8-8--10--10--x-x-10--10--x-x-10-10-10-10--10--10--x-x-10--10--x-x-10--10--x--|
-8----12------x-x-12------x-x-12----12-----10------x-x-10------x-x-10------x--|
------------------------------------------------------------------------------|


---------------------------------------------------------|--|----|------------|
------8-----8-------10----10----10----10---x-10--x-x-6---|--|----|------------|
-x-9--9--9--9---9---9-----9-----9-----9----x-10--x-x-7---|--|----|------------|
-x-10-10-10-10--12--12----12----12----12---x-12--x-x-8---|2x|----|------------|
-x-10----10-----12---------------------------------------|--|----|------------|
---------------------------------------------------------|--|-13-|------------|
Tap to rate this tab
 
# A B C D E F G H I J K L M N O P Q R S T U V W X Y Z