Red Hot Chili Peppers - Skinny Sweaty Man tab

-----------------------------------------------
  Skinny Sweaty Man - Red Hot Chili Peppers
-----------------------------------------------
Tabbed by: Nathan Coughlan

Tuning: Standard

Verse:
e|-------------------------8-8-8------------|
B|------x-x-------x-x-x-x--8-8-8------------|
G|------x-x-------x-x-x-x-------------------|
D|------x-x-------x-x-x-x-------------------|
A|-----------7p5----------------------------|
E|--0---------------------------------------|

Chorus:
e|------------------------------------------|
B|------------------------------------------|
G|---7--6-------------------------\9--------|
D|---------9--7------7-8-9------------------|
A|---------------10--------10--7------------|
E|------------------------------------------|

Interlude:
e|---7--9---\12-------7--9---\14------------|
B|---7--9---\12-------7--9---\14------------|
G|---7--9---\12-------7--9---\14------------|
D|------------------------------------------|
A|------------------------------------------|
E|------------------------------------------|


************************************

| /   slide up
| \   slide down
| h   hammer-on
| p   pull-off
| ~   vibrato
| +   harmonic
| x   Mute note
| b   Bend
| pb  Pre-bend
| br  Bend release
| pbr Pre-bend release
| brb Bend release bend

************************************
Tap to rate this tab
 
# A B C D E F G H I J K L M N O P Q R S T U V W X Y Z