Song name
# A B C D E F G H I J K L M N O P Q R S T U V W X Y Z

Red Hot Chili Peppers - Felas Cock tab

This is the right tab for Felas Cock as far as i know. Fun song to play!


E-|---------------------------------------|
B-|---------------------------------------|
G-|---------------------------------------| Repeat this! the last time before 
D-|--5-5-5-5-5-5-5-5-5-5-5-5-5-5-5-5-5-5--| the second riff just play 0 on 
A-|---------------------------------------| the G string)
E-|---------------------------------------|


The Second Riff:

E-|---15---13---10---12---10--------------|---15---13---10---12---10---18-18-18-18--|
B-|---15---13---11---13---11--------------|---15---13---11---13---11---18-18-18-18--|
G-|---------------------------12---0-0----|-----------------------------------------|
D-|---------------------------------------|-----------------------------------------|
A-|---------------------------------------|-----------------------------------------|
E-|---------------------------------------|-----------------------------------------|




The Third Riff:
(this is just from listening but it's as close as it gets)

E-|---6------4------------------15--------|
B-|---6------4------------------15--------|
G-|---6------5------------------15--------| just repeat this
D-|--------------------10-----------------|
A-|--------------------10-----------------|
E-|---------------------8-----------------|
Tap to rate this tab
 
# A B C D E F G H I J K L M N O P Q R S T U V W X Y Z