Song name
# A B C D E F G H I J K L M N O P Q R S T U V W X Y Z

Red Hot Chili Peppers - Did I Let You Know tab

Red Hot Chili Peppers
"I'm With You"  2011


This is the best introduction I can do. I am sure that it is good. Enjoy

e|-10----------10------13---10--10-------------------|
B|-11----11h13----13p11---------11-------------------|
G|-12------------------------------------------------|
D|-12------------------------------------------------|
A|---------------------------------------------------|
E|---------------------------------------------------|

e|--6---6---6------8---------|
B|--6---6---6------6---------|
G|--7---8---7------7---------|
D|--8---8---8------8---------|
A|---------------------------|
E|---------------------------|

e|-10----------10------13---10----13----10-----10----|
B|-11----11h13----13p11------------------------11----|
G|-12------------------------------------------------|
D|-12------------------------------------------------|
A|---------------------------------------------------|
E|---------------------------------------------------|

e|--6---6---6------8---------|
B|--6---6---6------6---------|
G|--7---8---7------7---------|
D|--8---8---8------8---------|
A|---------------------------|
E|---------------------------|

Any comments ,please email me on
nawrocki90@gmail.com
Tap to rate this tab
# A B C D E F G H I J K L M N O P Q R S T U V W X Y Z