Song name
# A B C D E F G H I J K L M N O P Q R S T U V W X Y Z

Red Hot Chili Peppers - Brendans Death Song tab

Brendans Death Song
Red Hot Chili Peppers
Im With You

Chords:
G: 3 2 0 0 3 3
C: x 3 2 0 1 0
Em: 0 2 2 0 0 0
C5: x 3 2 0 3 0

Intro
e----------------|------------------|-----------------|-----------------]
B-5h7-5----------|------------------|-----------------|-----------------]
G---------5-7-5--|-4h5-4-5-4--------|-----------------|-----------------]
D-5-----5-----5--|------------7-5-0-|-----5-----------|-----5-----------]
A---------0-(0)--|-0----------------|---5-5-5---------|---5-5-----5-----]
E----------------|---------0--------|-3---3-3-3-3-3-3-|-3---5-3-3-3-3-3-]

e----------------|------------------|-----------------|----------------]
B-5h7-5----------|------------------|-----------------|----------------]
G---------5-7-5--|-4h5-4-5-4--------|-4---------------|------4-4---4---]
D-5-----5-----5--|------------------|-------------5---|------5-5---5---]
A---------0------|-0----------7-5-0-|-------------5---|------5-5-5-5---]
E----------------|---------0--------|-3-3-3-3-3-3-3-3-|-3--3-3-3-3-3-3-]

Verse
e----------------|------------------|----------------|-------------]
B-5h7-5----------|------------------|----------------|-------------]
G---------5-7-5--|-4h5-4-5-4--------|-------------4--|---4-----4---]
D-5-----5-----5--|------------7-5-0-|-------5-----5--|---5-5-5-5---] Repeat: 6x
A---------0-(0)--|-0----------------|---5---5-5-5-5--|-5-5-5-5-5-5-]
E----------------|---------0--------|-3-3-3-3-3-3-3--|-3-3-3-3-3-3-]

Chorus (C can be substituted or switched up with C5 whenever you like)
G                        C
Like I said, you know im almost dead,
            Em
You know im almost gone.
             G                       C
And when the drummer drums its gonna play my song
         Em
To carry me along.

e----------------|------------|----------------|------------]
B----------------|------------|----------------|------------]
G-7-7-7/12-12/11-|-4-/7-7/4-4-|-/16-16--16--16-|---16-16-16-]
D----------------|------------|----------------|------------]
A-5-5-5/10-10/9--|-2-/5-5/2-2-|-/14-14--14--16-|---14-14-14-]
E----------------|------------|----------------|------------]
     Like I said	               im almost gone.

e----------------|------------|----------------|------------]
B----------------|------------|----------------|------------]
G-7-7-7/12-12/11-|-4-/7-7/4-4-|-/16-16--16--16-|---16-16-16-]
D----------------|------------|----------------|------------]
A-5-5-5/10-10/9--|-2-/5-5/2-2-|-/14-14--14--16-|---14-14-14-]
E----------------|------------|----------------|------------]
     Boatman comes	            all belong.

Verse
e----------------|------------------|----------------|-------------]
B-5h7-5----------|------------------|----------------|-------------]
G---------5-7-5--|-4h5-4-5-4--------|-------------4--|---4-----4---]
D-5-----5-----5--|------------7-5-0-|-------5-----5--|---5-5-5-5---] Repeat: 6x
A---------0-(0)--|-0----------------|---5---5-5-5-5--|-5-5-5-5-5-5-]
E----------------|---------0--------|-3-3-3-3-3-3-3--|-3-3-3-3-3-3-]

Chorus
G                        C
Like I said, you know im almost dead,
            Em
You know im almost gone.
             G                       C
And when the drummer drums its gonna play my song
         Em
To carry me along.

e----------------|------------|----------------|------------]
B----------------|------------|----------------|------------]
G-7-7-7/12-12/11-|-4-/7-7/4-4-|-/16-16--16--16-|---16-16-16-]
D----------------|------------|----------------|------------]
A-5-5-5/10-10/9--|-2-/5-5/2-2-|-/14-14--14--16-|---14-14-14-]
E----------------|------------|----------------|------------]
     Like I said	               im almost gone.

e----------------|------------|----------------|------------]
B----------------|------------|----------------|------------]
G-7-7-7/12-12/11-|-4-/7-7/4-4-|-/16-16--16--16-|---16-16-16-]
D----------------|------------|----------------|------------]
A-5-5-5/10-10/9--|-2-/5-5/2-2-|-/14-14--14--16-|---14-14-14-]
E----------------|------------|----------------|------------]
     Boatman comes	            all belong.

Bridge
  Em
e-0---------------|---------0-0-0-0-|-0---------------|-----------0-0-0-]
B-0---------------|---------0-0-0-0-|-0---------------|-----------0-0-0-]
G-0---------------|-0-0-0-0-9-9-9-9-|-0---------------|-0-0-0-0-0-9-9-9-]
D-2-2-2-2-2-2-2-2-|-2-2-2-2-9-9-9-9-|-2-2-2-2-2-2-2-2-|-2-2-2-2-2-9-9-9-] Repeat: 3x
A-2-2-2-2-2-2-2-2-|-2-2-2-2-7-7-7-7-|-2-2-2-2-2-2-2-2-|-2-2-2-2-2-7-7-7-]
E-0-0-0-0-0-0-0-0-|-0-0-0-0-0-0-0-0-|-0-0-0-0-0-0-0-0-|-0-0-0-0-0-0-0-0-]

Chorus
G                        C
Like I said, you know im almost dead,
            Em
You know im almost gone.
             G                       C
And when the drummer drums its gonna play my song
         Em
To carry me along.
G                        C
Like I said, you know im almost dead,
            Em
You know im almost gone.
             G                      C
And when the boatman comes to ferry me along
            Em
To where we all belong.
G                     C
Then we live so every time you die
           Em
Hes in the revert sky.
G                       C
Lay me down so when its time to leave
        Em
Another sun will rise.

Outro
Guitar 2: Solo (G, C, Em Rhythm Continues)
e---------------------|-------------|--------------------|-------------------]
B---------------------|-------------|--------------------|-------------------]
G--12-12-12-12/11/7-7-|-9-9-9-9--12-|--------------------|-16----------------]
D---------------------|-------------|-16b18r16-12--14-14-|----14-14-14--14-14]
A---------------------|-------------|--------------------|-------------------]
E---------------------|-------------|--------------------|-------------------]

e---------------------|------------|---------|------------------------------]
B---------------------|------------|---------|------------------------------]
G--12-12-12-12/11/7-7-|-9-9b11r9---|---------|------------------------------]
D---------------------|----------7-|-7-7/9-9-|-9h12/14-14-14-14-14-14-14-14-]
A---------------------|------------|---------|------------------------------]
E---------------------|------------|---------|------------------------------]

G                       C
Like I said you know im almost dead
            Em
You know im almost gone.
             G                       C
And when the drummer drums its gonna play my song
         Em
To carry me along.
G                       C
Like I said you know im almost dead
            Em
You know im almost gone.
             G                  C    
When the boatman comes to ferry me away
            Em
To where we all belong.
  G             C              Em
e-3-----------|-0-----------|--0-----------|-0---------]
B-3-----------|-3-----------|--0-----------|-0---------]
G-0-----------|-0-----------|--0-----------|-0---------]
D-0-----------|-2--2--------|--2--2--------|-2---------]
A-2--2--2-0-2-|-3--3--2-0-2-|--2--2--2-0-2-|-2------2--]
E-3--3--------|-x--x--------|--0--0--------|-0--0-3----]
 G	      C             Em
e-3-----------|-0-----------|--0-----------|-0------------]
B-3-----------|-1-----------|--0-----------|-0------------]
G-0-----------|-0-----------|--0-----------|-0------------]
D-0-----------|-2--2--------|--2-----------|-2----------0-]
A-2--2--2-0-2-|-3--3--2-0-2-|--2--2--0-2-0-|-2------0-2---]
E-3--3--------|-x--x--------|--0-----------|-0--0-3-------]
 G
e-3--3--------|-------------|-0-----------0--]
B-3--3--------|-------------|-0-----------0--]
G-0--0--------|-0-0---------|-0--0-----0--0--]
D-0--0--------|-2-2--0---0--|-2--2-----2--2--]
A-2--2--2-0-2-|-3-3----2----|-2-----2--2--2--]
E-3--3--------|-x-----------|-0-----0-----0--]
Great song.  Not sure if its all correct but it sounds good.
Enjoy
Tap to rate this tab
 
# A B C D E F G H I J K L M N O P Q R S T U V W X Y Z