Song name
# A B C D E F G H I J K L M N O P Q R S T U V W X Y Z

Red Hot Chili Peppers - Monarchy Of Roses tab

Song: Monarchy Of Roses
Artist: Red Hot Chili Peppers
Album: I'm With You

Tabbed by: L.A Rai

Intro/Verses:

E-----------------------------|
B-----------------------------|
G-----------------------------|
D-----------------------------|
A-----------------------------|
E-0-4-7-6--0-4-7-6------------|


Chorus:

E--3--7--3--7--5--2--5--2----------|
B--5--8--5--7--7--3--7--3----------|
G--5--9--5--8--7--4--7--4----------|
D--5--9--5--9--7--4--7--4----------|
A--3--7--3--7--5--2--5--2----------|
E----------------------------------|


E----12----12---12--12---12--12----------|
B----------------------------------------|
G-13----13----14--14---13--13----/18-----|
D----------------------------------------|
A----------------------------------------|
E----------------------------------------|

Outro:

E-3--5--7---6-----|
B-3--5--7---8-----|
G-4--6--9---8-----|
D-5--7--10--8-----|
A-5--7--10--6-----|
E-3--5--8---------|

End on G.

I hope to add to this as I listen to the song more,
Comments & feedback welcome :)

Thanks,

http://soundcloud.com/laura-rai
Tap to rate this tab
# A B C D E F G H I J K L M N O P Q R S T U V W X Y Z