Song name
# A B C D E F G H I J K L M N O P Q R S T U V W X Y Z

Red Hot Chili Peppers - Brendans Death Song chords

Highlighted       Show chord diagrams
-------------------------------------------------------------------------------
Brendan’s Death Song – Red Hot Chili Peppers
-------------------------------------------------------------------------------
Tabbed by: Gary
Email:g.white.tpp@gmail.com

Tuning: Standard


Intro Acoustic Guitar

      Dmaj         Cmaj        Amin          Emin               Gmaj

e|---0h2--0----------------------------------------------------------------------|
B|-----------3----1--3--1-----0h1--0------0------------0-----0-0-0-0-------------|
G|------------------------------------2------2--0--2---------0-0-0-0-------------|
D|---0---------------------0---------------------------------0-0-0-0-------------|
A|----------------3-----------0------------------------------0-0-0-0-------------|
E|----------------------------------------0------------3-----3-3-3-3-------------|



Chorus’


Gmaj                       Cmaj                     Emin

Like I said you know Im almost dead you know Im almost gone


Thats pretty much it. I only tabbed this for the acoustic guitar just because I 
like the intro and the chorus vocal melody. 

The Breakdown is primarily around Emin.

Any Questions, comments or requests, contact me via e-mail if you wish! :)

************************************

| /   slide up
| \   slide down
| h   hammer-on
| p   pull-off
| ~   vibrato
| +   harmonic
| x   Mute note
| b   Bend
| pb  Pre-bend
| br  Bend release
| pbr Pre-bend release
| brb Bend release bend

************************************
v
Tap to rate this tab
# A B C D E F G H I J K L M N O P Q R S T U V W X Y Z