Song name
# A B C D E F G H I J K L M N O P Q R S T U V W X Y Z

Red Hot Chili Peppers - Brendans Death Song tab

-------------------------------------------------------------------------------
			     Brendan's Death Song - Red Hot Chili Peppers
-------------------------------------------------------------------------------
                               Learned from ear from the listening party the  other day!
Tabbed by: Devin


Tuning:Standard
                                 Intro/Verse
e|------0h2p0-------------------------------------------------------------------|
B|-------------3----1--------1h3--1p0------0h1-0-1-0----------------------------|
G|------------------0--------------------------------0h2p0--------0---0----0----|
D|------------------2---------------------------------------------0---0----0----|
A|------------------3---------------------------------------------2---2----2----|
E|----------------------------------------------------------------3---3----3----|
                                  Chorus
 G5                   C5
Like i said you know Im almost dead,
          Em
you know im almost gone.
 G5
and when the drummer drums,
 C5
hes gonna play my song,
 Em
to carry me along.


                             For the Bridge, its only the Em chord!


Lyrics from http://www.hotnewsonglyrics.com/red-hot-chili-peppers-brendans-death-song-lyrics.html



************************************

| /   slide up
| \   slide down
| h   hammer-on
| p   pull-off
| ~   vibrato
| +   harmonic
| x   Mute note
| b   Bend
| pb  Pre-bend
| br  Bend release
| pbr Pre-bend release
| brb Bend release bend

************************************
Tap to rate this tab
# A B C D E F G H I J K L M N O P Q R S T U V W X Y Z