Song name
# A B C D E F G H I J K L M N O P Q R S T U V W X Y Z

Red Hot Chili Peppers - Monarchy Of Roses tab

Song: Monarchy Of Roses
Artist: Red Hot Chili Peppers
Album: Iím With You (2011)

Tabbed by: Jwaz
Email: JeremyWaszak@Gmail.com

Tuning: Standard (E,A,D,G,B,e)

Intro/Verse: (Distortion)
(In the beginning of the song Josh plays a bunch of random notes with some feedback and 
then eventually goes into this...)
e|-------------------0-------------------------------------------------------|
B|------------8b---5---------------------------------------------------------|
G|---------------------------------------------------------------------------|
D|---------------------------------------------------------------------------|
A|---------------------------------------------------------------------------|
E|---------------------------------------------------------------------------|

e|-----------------------------------|
B|-----------------------------------|
G|-----------------------------------|
D|-----------------------------------|      x4
A|-----------------------------------|
E|------0-------3-------7~ ------6~ -|

Chorus: (Clean)
(Listen to song and/or watch Josh play live to figure out strumming)
e|-----8-------12-------8------12--------8--------12--------10-------7-------|
B|-----8-------12-------8------12--------8--------12--------10-------7-------|
G|-----9-------12-------9------12--------9--------12--------11-------7-------|
D|----10-------14------10------14-------10--------14--------12-------9-------|
A|---------------------------------------------------------------------------|
E|---------------------------------------------------------------------------|

e|-----8-------12-------8------12--------10--------7--------10-------7-------|
B|-----8-------12-------8------12--------10--------7--------10-------7-------|
G|-----9-------12-------9------12--------11--------7--------11-------7-------|
D|----10-------14------10------14--------12--------9--------12-------9-------|
A|---------------------------------------------------------------------------|
E|---------------------------------------------------------------------------|


Verse: (Distortion)
(Play the 12~ as many times as you feel is necessary)
e|-------------------------------------------------14-------14h15---------------|
B|---12~12~12~12~12~12~12~12~12~ ------12~--------------------------------------|
G|------------------------------------------------------------------------------|
D|------------------------------------------------------------------------------|
A|------------------------------------------------------------------------------|
E|------------------------------------------------------------------------------|

e|-----------------------------------|
B|-----------------------------------|
G|-----------------------------------|
D|-----------------------------------|      x4
A|-----------------------------------|
E|------0-------3-------7~ ------6~ -|

Chorus: (Clean)
(Listen to song and/or watch Josh play live to figure out strumming)
e|-----8-------12-------8------12--------8--------12--------10-------7----------|
B|-----8-------12-------8------12--------8--------12--------10-------7----------|
G|-----9-------12-------9------12--------9--------12--------11-------7----------|
D|----10-------14------10------14-------10--------14--------12-------9----------|
A|------------------------------------------------------------------------------|
E|------------------------------------------------------------------------------|

e|-----8-------12-------8------12--------10--------7--------10-------7-------|
B|-----8-------12-------8------12--------10--------7--------10-------7-------|
G|-----9-------12-------9------12--------11--------7--------11-------7-------|
D|----10-------14------10------14--------12--------9--------12-------9-------|
A|---------------------------------------------------------------------------|
E|---------------------------------------------------------------------------|

Breakdown:
(Use your whammy bar or bend your E string before the first fret over the guitarís head)
e|----------------------------------------------------------------------------------|
B|----------------------------------------------------------------------------------|
G|----------------------------------------------------------------------------------|
D|----------------------------------------------------------------------------------|
A|----------------------------------------------------------------------------------|
E|-----0~ ~ ~ ~ ~ ~ ~ ~ ~ ~---------------------------------------------------------|



(Clean)
e|---------------12-----12-----------------12-----12----------------------------|
B|------------------------------------------------------------------------------|
G|-----13~ ----------13----------14~ ----------14-------------------------------|
D|------------------------------------------------------------------------------|
A|------------------------------------------------------------------------------|
 E|-----------------------------------------------------------------------------|

e|---------------12-----12-----------------12-----12-------------------------|
B|---------------------------------------------------------------------------|
G|-----13~ ----------13-----------14~ ---------14----------------------------|
D|---------------------------------------------------------------------------|
A|---------------------------------------------------------------------------|
E|---------------------------------------------------------------------------|

e|---------------12-----12-----------------12-----12--------------------------|
B|----------------------------------------------------------------------------|
G|-----13~ ----------13-----------14~ ---------14-----------------------------|
D|----------------------------------------------------------------------------|
A|----------------------------------------------------------------------------|
E|----------------------------------------------------------------------------|

e|---------------12-----12-------------------------------------------------------|
B|-------------------------------------------------------------------------------|
G|-----13~ ----------13-----------18brb -----------------------------------------|
D|-------------------------------------------------------------------------------|
A|-------------------------------------------------------------------------------|
E|-------------------------------------------------------------------------------|

e|---------------12-----12-----------------12-----12--------------------------|
B|----------------------------------------------------------------------------|
G|-----13~ ----------13-----------14~ ---------14-----------------------------|
D|----------------------------------------------------------------------------|
A|----------------------------------------------------------------------------|
E|----------------------------------------------------------------------------|

e|---------------12-----12--------------------------------------------------------|
B|--------------------------------------------------------------------------------|
G|-----13~ ----------13-----------14 x4 ---16 x4----------------------------------|
D|--------------------------------------------------------------------------------|
A|--------------------------------------------------------------------------------|
E|--------------------------------------------------------------------------------|

e|---------------12-----12-----------------12-----12--------------------------|
B|----------------------------------------------------------------------------|
G|-----13~ ----------13-----------14~ ---------14-----------------------------|
D|----------------------------------------------------------------------------|
A|----------------------------------------------------------------------------|
E|----------------------------------------------------------------------------|

e|--------------------------------------------------------------------------------|
B|--------------------------------------------------------------------------------|
G|-----------18brb 18brb 18brb--18b-----------------------------------------------|
D|--------------------------------------------------------------------------------|
A|--------------------------------------------------------------------------------|
E|--------------------------------------------------------------------------------|


Chorus: (Clean)
(Listen to song and/or watch Josh play live to figure out strumming)
e|-----8-------12-------8------12--------8--------12--------10-------7----------|
B|-----8-------12-------8------12--------8--------12--------10-------7----------|
G|-----9-------12-------9------12--------9--------12--------11-------7----------|
D|----10-------14------10------14-------10--------14--------12-------9----------|
A|------------------------------------------------------------------------------|
E|------------------------------------------------------------------------------|

e|-----8-------12-------8------12--------10--------7--------10-------7-------|
B|-----8-------12-------8------12--------10--------7--------10-------7-------|
G|-----9-------12-------9------12--------11--------7--------11-------7-------|
D|----10-------14------10------14--------12--------9--------12-------9-------|
A|---------------------------------------------------------------------------|
E|---------------------------------------------------------------------------|

Outro: (Distortion)
e-----3--------5--------3--------6-----|
B-----3--------5--------5--------8-----|
G-----4--------6--------5--------8-----|  x6
D-----5--------7--------5--------8-----|
A-----5--------7--------3--------6-----|
E-----3--------5-----------------------|


End on:
e-----3~ -------------|
B-----3~ -------------|
G-----4~ -------------|
D-----5~ -------------|
A-----5~ -------------|
E-----3~ -------------|





************************************

| /   slide up
| \   slide down
| h   hammer-on
| p   pull-off
| ~   vibrato
| +   harmonic
| x   Mute note
| b   Bend
| pb  Pre-bend
| br  Bend release
| pbr Pre-bend release
| brb Bend release bend

************************************
Tap to rate this tab
# A B C D E F G H I J K L M N O P Q R S T U V W X Y Z