Song name
# A B C D E F G H I J K L M N O P Q R S T U V W X Y Z

Red Hot Chili Peppers - Annie Wants A Baby tab

-------------------------------------------------------------------------------
		 Annie Wants a Baby - RED HOT CHILI PEPPERS
-------------------------------------------------------------------------------
Tabbed by: Brenton Chattin
Email: chattin@adam.com.au

Tuning: Standard


Another great song from "I'm with You", I've worked out most of it, fun song to play.
Practice that vibrato to really get it sounding good. Also really dig into the G string 
while muting the other strings to get the funk sound
The song is really technical rhythmically, so I haven't included the form too much but 
these are the parts you need to play along.


Verses: 0:20 With slight improv, repeat as required

e|---------------------------------------------------------------------------|
B|---------------------------------------------------------------------------|
G|--10~-----12b14--------------------10~----12b14----------------------------|
D|-----------------10h12~---------------------------10h12~-------------------|
A|------------------------10/12-12-------------------------------------------|
E|---------------------------------------------------------------------------|

e|---------------------------------------------------------------------------|
B|---------------------------------------------------------------------------|
G|---------------------------------------------------------------------------|
D|----------------10-------------------------------------12------------------|  << This 
part is probably a bit unconventional as you have to pull down on the bend to hit the G note
A|--10-8-10-10/12----12\10--8h10--8~-----10-8-10--10/12-----10--10--8b10-----|     if 
you prefer to bend up just play the bend on the D string 3rd fret
E|---------------------------------------------------------------------------|




Prechorus x2: 0:52 "Sent along the way"

    Gm				   F
e|--------10-------10--------------------13-------13-------------------------|
B|-----11-------11--------11----------13-------13--------13------------------|
G|--12-------12--------12----------14-------14--------14---------------------|
D|---------------------------------------------------------------------------|
A|---------------------------------------------------------------------------|
E|---------------------------------------------------------------------------|

    Bb
e|--------10--------10----------------10--------10---------------------------|
B|-----11--------11---------11-----11--------11--------11--------------------|
G|--10--------10--------10------10--------10--------10-----------------------|
D|---------------------------------------------------------------------------|
A|---------------------------------------------------------------------------|
E|---------------------------------------------------------------------------|


1:07 "Sugar Daddy"

Arpeggiate these chords:  Dm     Gm     Eb     D/Gb    Dm/F

Listen to the song to work out the exact picking because each chord is arpeggiated differently.


     Dm            Gm               Eb         D/Gb       Dm/F
e|---------------------------------------------------------------------------|
B|---------6---------------11-----------8------------7--------6--------------|
G|-------7--------------12------------8------------7--------7----------------|
D|-----7-------------12-------------8------------7--------7------------------|
A|---5------------10--------------6-----------/9-------\8--------------------|
E|---------------------------------------------------------------------------|

e|-----------------------------6---------------------------------------------|
B|--------6--8b10-6-8--------8---8-------------8-----8----------7---------6--|
G|------7--------------5h7~7-------7---------8-----8----------7---------7----|
D|----7------------------------------------8-----8----------7---------7------|
A|--5------------------------------------6---------------/9--------\8--------|
E|---------------------------------------------------------------------------|



Chorus: 1:24 "I don't need to tend her"

Dm Gm Eb D/Gb Dm/F  x


Bb

Post Chorus 1:43


e|---------------------------------------------------------------------------|
B|--10-x-10-----------10-x-13-10---------------------------------------------|
G|----------10-10---10------------10-10-9-7-7b9r7b9r7-----------5------------|
D|----------------------------------------------------5/7-7-7-7----7---------|
A|---------------------------------------------------------------------------|
E|---------------------------------------------------------------------------|

Verse: x1 then this fill


e|-------------------1313131313131313-------------------|
B|-------------------1313131313131313-------------------|
G|---9~---12b--10----x-x-x-x-x-x-x-x--------------------|
D|------------------------------------------------------|
A|------------------------------------------------------|
E|------------------------------------------------------|

Verse x1

Prechorus x2: 2:27 "Sent along the way"

    Gm				   F
e|--------10-------10--------------------13-------13-------------------------|
B|-----11-------11--------11----------13-------13--------13------------------|
G|--12-------12--------12----------14-------14--------14---------------------|
D|---------------------------------------------------------------------------|
A|---------------------------------------------------------------------------|
E|---------------------------------------------------------------------------|

    Bb
e|--------10--------10----------------10--------10---------------------------|
B|-----11--------11---------11-----11--------11--------11--------------------|
G|--10--------10--------10------10--------10--------10-----------------------|
D|---------------------------------------------------------------------------|
A|---------------------------------------------------------------------------|
E|---------------------------------------------------------------------------|

Chorus: 2:43 "Sugar Daddy"

Dm Gm Eb D/Gb Dm/F  x2


Bb

3:16
Solo: Improv in D minor



3:33

    Gm				   F
e|--------10-------10--------------------13-------13-------------------------|
B|-----11-------11--------11----------13-------13--------13------------------|
G|--12-------12--------12----------14-------14--------14---------------------|
D|---------------------------------------------------------------------------|
A|---------------------------------------------------------------------------|
E|---------------------------------------------------------------------------|


End on

    Bb
e|--------10~--|
B|-----11~-----|
G|--10~--------|
D|-------------|
A|-------------|
E|-------------|


That's it, the form might be messed up a bit but all the parts are there. Hopefully it's 
more than enough to play with the track
Learn the bassline too, throw it on loop, and it's easier to practice improvising in the solo.

Thanks


************************************

| /   slide up
| \   slide down
| h   hammer-on
| p   pull-off
| ~   vibrato
| +   harmonic
| x   Mute note
| b   Bend
| pb  Pre-bend
| br  Bend release
| pbr Pre-bend release
| brb Bend release bend

************************************
Tap to rate this tab
 
# A B C D E F G H I J K L M N O P Q R S T U V W X Y Z