Song name
# A B C D E F G H I J K L M N O P Q R S T U V W X Y Z

Red Hot Chili Peppers - Million Miles Of Water Fill tab

This is the solo for the guitar fill that comes in after the main solo, you can
find a perfect main solo on the version 2 tab for this song I was too lazy to
re-tab it. When the bend is after the fret # hit the note than bend it.

p=Pull off
b=Bend
h=hammer on
/=slide
e---------------------------------------------------------------------------|
B--15h17-17---15p12-15p12--15-15b---------------15h17-17----15p12-15p12-----|
G-----------------------------------16~-14h16-16----------------------------|
D---------------------------------------------------------------------------|
A---------------------------------------------------------------------------|
E---------------------------------------------------------------------------|

e---------------------------------------------------------------------------|
B-15-----------------15h17-17---15p12-15p12--15-15b--------------15h17-17---|
G---14b~-14-12h14-12---------------------------------16~-14h16-16-----------|
D---------------------------------------------------------------------------|
A---------------------------------------------------------------------------|
E---------------------------------------------------------------------------|

e---------------------------------------------------------------------------|
B-15p12-15p12--15~/19-19-19-19p17p15~---------------------------------------|
G---------------------------------------------------------------------------|
D---------------------------------------------------------------------------|
A---------------------------------------------------------------------------|
E---------------------------------------------------------------------------|

Well thats it if you dont want to hammer the notes a slide will do as well,
maybe simulate the effect he has on it, but the bends do a pretty good job
if you do them right. Hope this helps some, this is an awesome B side. Enjoy
Tap to rate this tab
# A B C D E F G H I J K L M N O P Q R S T U V W X Y Z