Song name
# A B C D E F G H I J K L M N O P Q R S T U V W X Y Z

Red Hot Chili Peppers - Otherside tab

  otherside by the red hot chili peppers
 /=slide

E|--------------------------| E|---------------------------------|
B|--------------------------| B|---------------------------------|
G|--------------------------| G|---------------------------------|
D|--------7-7-9-7-5---------| D|--------7-7-9-7-5----------------|
A|--7-7-7----------7--5-5-5-| A|--7-7-7-----------7--7-7-7-5-5-5-|
E|--------------------------| E|---------------------------------|

E|-------------------------------| E|-----------------------------|
B|-------------------------------| B|-----------------------------|
G|-------------------------------| G|-----------------------------|
D|--------7-7-9-7-5--------------| D|--------7-7-7/14-14-14-9-9-9-|
A|-7-7-7-7---------7-7-7-7-5-5-5-| A|-7-7-7-7---------------------|
E|-------------------------------| E|-----------------------------|



E|-----8---------------15-|
B|-----------------12-----|
G|------------------------| X3
D|------------------------|
A|------------------------|
E|-5--5--5-5/12-12--------|

E|---3---------5------------------------|
B|---3---------5------------------------|
G|---4---------6------------------------|
D|---5---------7------------------------|
A|---5---------7------------------------|
E|---3---------5------------------------|

E|-----8---------------15-|
B|-----------------12-----|
G|------------------------| X3
D|------------------------|
A|------------------------|
E|-5--5--5-5/12-12--------|

E|---3----5-----3----5-----3----5------|
B|---3----5-----3----5-----3----5------|
G|---4----6-----4----6-----4----6------|
D|---5----7-----5----7-----5----7------|
A|---5----7-----5----7-----5----7------|
E|---3----5-----3----5-----3----5------|

E|--------------------------| E|---------------------------|
B|--------------------------| B|---------------------------|
G|--------------------------| G|---------------------------|
D|--------7-7-9-7-5---------| D|--------7-7-9-7-5----------|
A|--7-7-7----------7--5-5-5-| A|--7-7-7-----------7--5-5-5-|
E|--------------------------| E|---------------------------|

E|-------------------------------| E|-----------------------------------|
B|-------------------------------| B|-----------------------------------|
G|-------------------------------| G|-----------------------------------|
D|--------7-7-9-7-5--------------| D|--------7-7-7/14-14-14-17-17-17-17-|
A|-7-7-7-7---------7-7-7-7-5-5-5-| A|-7-7-7-7---------------------------|
E|-------------------------------| E|-----------------------------------|

E|-----8---------------15-|
B|-----------------12-----|
G|------------------------| X3
D|------------------------|
A|------------------------|
E|-5--5--5-5/12-12--------|

E|---3---------5----------|
B|---3---------5----------|
G|---4---------6----------|
D|---5---------7----------|
A|---5---------7----------|
E|---3---------5----------|

E|-------8---------------15-|
B|---------------------12---|
G|--------------------------|
D|--------------------------|
A|--------------------------|
E|-5-5-5--5--5-5/12-12------|

E|-----8---------------15-|
B|-----------------12-----|
G|------------------------| X2
D|------------------------|
A|------------------------|
E|-5--5--5-5/12-12--------|

E|---3----5-----3----5-----3----5------|
B|---3----5-----3----5-----3----5------|
G|---4----6-----4----6-----4----6------|
D|---5----7-----5----7-----5----7------|
A|---5----7-----5----7-----5----7------|
E|---3----5-----3----5-----3----5------|

E|--------------------------| E|---------------------------|
B|--------------------------| B|---------------------------|
G|--------------------------| G|---------------------------|
D|--------7-7-9-7-5---------| D|--------7-7-9-7-5----------|
A|--7-7-7----------7--5-5-5-| A|--7-7-7-----------7--5-5-5-|
E|--------------------------| E|---------------------------|

E|-------------------------------| E|-----------------------------------|
B|-------------------------------| B|-----------------------------------|
G|-------------------------------| G|-----------------------------------|
D|--------7-7-9-7-5--------------| D|--------7-7-7-5-5-5----------------|
A|-7-7-7-7---------7-7-7-7-5-5-5-| A|-7-7-7-7---------------------------|
E|-------------------------------| E|-----------------------------------|


E|--12-12-12--00-00-00---12-12-12--00-00-00-|
B|--00-00-00--12-12-12---00-00-00--12-12-12-|
G|------------------------------------------|
D|------------------------------------------|
A|------------------------------------------|
E|------------------------------------------|

E|--12-12-12--00-00-00---12-12-12--00-00-00-|
B|--00-00-00--12-12-12---00-00-00--12-12-12-|
G|------------------------------------------|
D|------------------------------------------|
A|------------------------------------------|
E|------------------------------------------|

E|--00-00-00-00--00--00-00-00-00-00-00-|
B|--10-10-10/17--17--17-17-17-19-17-17-|
G|-------------------------------------|
D|-------------------------------------|
A|-------------------------------------|
E|-------------------------------------|

E|------------------------------------|
B|--17-17-17-19-17-17-17-17-17-19-----|
G|------------------------------------|and repeat at the end
D|------------------------------------|
A|------------------------------------|
E|------------------------------------|
Tap to rate this tab
# A B C D E F G H I J K L M N O P Q R S T U V W X Y Z