Song name
# A B C D E F G H I J K L M N O P Q R S T U V W X Y Z

Red Hot Chili Peppers - Meet Me At The Corner tab

First tab. Will be working on it soon, but it's night time and I'm too tired for the now.

KEY:Cminor (D#maj)

A hint to doing all them little fills between chords is just to make
something up in Cminor Pentatonic scale.(because there's no way I'm going
to tab every single fill he does)


Verse:

   Cmin                      |--Fill*-----------------------|
e-----------------------------------------------------------|
B-----------------------------------------------------------|
G-----------------------------------------------------------|  x6
D---10---10-10-10--8-8----------8h10p8----8~----------------|
A---10---10-10-10--8-8h10----10--------10-------------------|
E---8----8--8--8--------------------------------------------|




    G#maj      EbMaj    A#Maj
e-----4-4-4---------------6-6---------------|
B-----4-4-4----8-8-8------6-6---------------|
G-----5-5-5----8-8-8------7-7------11*------|    *strum
D---6-----6----8-8-8----8---8------12*------|    accordingly
A---6-----6----6-6-6----8---8------11*------|
E---4-----4-------------6---6------10*------|


Chorus:
Surely you can pick up on the strumming pattern for this.

  Cmin    G#maj     EbMaj    A#maj
e--8-------4------------------6---------------|
B--8-------4---------8--------6---------------|
G--8-------5---------8--------7-------7-------|
D--10------6---------8--------8-------9-------|
A--10------6---------6--------8-------8-------|
E--8-------4------------------6-------7-------|




Small Solo:
Not yet tabbed (I'll get right onto it when I have time)

Verse 2:


   Cmin                      |--Fill*-----------------------|
e-----------------------------------------------------------|
B-----------------------------------------------------------|
G-----------------------------------------------------------|  x4
D---10---10-10-10--8-8----------8h10p8----8~----------------|
A---10---10-10-10--8-8h10----10--------10-------------------|
E---8----8--8--8--------------------------------------------|




    G#maj      EbMaj    A#Maj
e-----4-4-4---------------6-6---------------|
B-----4-4-4----8-8-8------6-6---------------|
G-----5-5-5----8-8-8------7-7------11*------|    *strum
D---6-----6----8-8-8----8---8------12*------|    accordingly
A---6-----6----6-6-6----8---8------11*------|
E---4-----4-------------6---6------10*------|


Chorus:
Identical to last




Verse 3:
Coming soon
It's pretty much Cmin chord for like 2-3 measures


Bridge(josh singing):

coming very soon

Verse 4:
Same as Verse 2 (cmin measure 4 times)



Chorus:
same as the last




Outro:

doin it soon.
Tap to rate this tab
# A B C D E F G H I J K L M N O P Q R S T U V W X Y Z