Song name
# A B C D E F G H I J K L M N O P Q R S T U V W X Y Z

Red Hot Chili Peppers - Soul To Squeeze tab

Red Hot Chili Peppers
Soul To Squeeze 
Rhythm
Intro
|--------------------------|---------------------------------|
|--------------------------|------------------------5--------|
|-------2----4b5---------2-|-------2-------2----4/6--(6)/4p2-|
|----2---------------2h4---|----2------2---------------------|
|-0-------0-------0--------|-0-------0---0---0---------------|
|--------------------------|---------------------------------|
               
|--------------------------|---------------------------------|
|-------2---4b5b4--------2-|-------2-------------------------|
|----2---------------2h4---|----2--------2----2------2-------|
|-0-------0-------0--------|-0--------0----0-----------------|
|--------------------------|----------------------3-----3b---|

|--------------------------|------------------------5--------|
|--------------------------|---------------------------------|
|-------2----4b5---------2-|-------2-------2----4/6--(6)/4p2-|
|----2---------------2h4---|----2------2---------------------|
|-0-------0-------0--------|-0-------0---0---0---------------|
|--------------------------|---------------------------------|

|--------------------------|---------------------------------|
|-------2---4b5b4--------2-|-------------2-----2----x--2-----|
|----2---------------2h4---|-2--2--2--2--2--2--2--2-x--2-----|
|-0-------0-------0--------|-0--0--0--0--0--0--0--0-x--0-----|
|--------------------------|------------------------------3b-|

Verse 1                          Repeat until Chorus
|-----1----------------------|-------------------------------|
|-----1--x-----------5-------|--------8p6--------------6-----|
|-----2--x-----------5-------|-------------7-----------7-----|
|-----3--x-----------5-------|-------------------------8-----|
|---------------3----3---5/7-|--0----------------------x-----|
|-1--------3/5---------------|---------------6-----6---6-----|

|---------------------------------|-------------------------||
|-7--7-7-7-7-7-x-10--10-10-x-x--8-|--------8----10--10-----.||
|-6--6-6-6-6-6-x-10--10-10-x-x--9-|--------9-----9---9------||
|-6--6-6-6-6-6-x-10--10-10-x-x-10-|-------10----10--10------||
|-5--5-5-5-5-5-x--8---8--8-x-x--x-|------------------------.||
|-------------------------------8-|-------------------------||
                                         
Chorus 1 & 2
|--------------|--------------|----------------|-------------|
|-10~----------|--8~----------|-6~-------------|-6~----------|
|-10~----------|--9~----------|-7~-------------|-7~----------|
|-10~----------|-10~----------|-7~-------------|-8~----------|
|--8~----------|-10~----------|-5~-------------|-8~----------|
|--------------|--8~----------|----------------|-6~----------|

|--------------|--------------|----------------|-------------|
|-10~----------|--8~----------|-6---6---6---6--|-5-5-x--6----|
|-10~----------|--9~----------|-7---7---7---7--|-5-5-x--7----|
|-10~----------|-10~----------|-7---7---7---7--|-7-7-x--8----|
|--8~----------|-10~----------|-5---5---5---5--|-7-7-x--8----|
|--------------|--8~----------|----------------|-5-5----6----|



Solo
|-------------------------------|--|-------------------------|
|-------------------------------|--|---------------13~-------|
|-12b13b12--10--12----12/14--10~|~~|--12/14-14-14-------14\12| 
|-------------------------------|--|-------------------------|
|-------------------------------|--|-------------------------|
|-------------------------------|--|-------------------------|

|-------------------|---------------------------------|------|
|--------------6~---|---------------------------------|------|
|--10----5/7--------|--12/14--12--10--12----14--10b12~|-10~--|
|-------------------|---------------------------------|------|
|-------------------|---------------------------------|------|
|-------------------|---------------------------------|------|

|-----------------------------|------------------------------|
|-------------13b15-----------|------------------------------|
|---14-14-14----------14-14---|----8b10----6b8----5b7--------|
|-----------------------------|---10b12----8b10---7b9-----x--|
|-----------------------------|---------------------------x--|
|-----------------------------|------------------------------|

Bridge
|-------------------------|----------------------------------|
|--6--6-x----5----5--5----|--5-5-5-5-5-5-5-5-5-5-5-5-5--5----|
|--7--7-x----5----5--5----|--5-5-5-5-5-5-5-5-5-5-5-5-5--5--x-|
|--7--7-x----5----5--5----|--7-7-7-7-7-7-7-7-7-7-7-7-7--7--x-|
|--5--5-x-x--3----3--3----|--x-x-x-x-x-x-x-x-x-x-x-x-x--x--x-|
|-------------------------|--5-5-5-5-5-5-5-5-5-5-5-5-5--5--x-|
Play 3 Times ^
|-------------------------------|----------------------------|
|--6----6--x-----5-----5---5----|------------x---x---6-------|
|--7----7--x-----5-----5---5----|--5-----5---x---x---7-------|
|--7----7--x-----5-----5---5----|--7-----7---x---x---8-------|
|--5----5--x--x--3-----3---3----|--7-----7---x---x---8-------|
|-------------------------------|--5-----5---x-------6-------|

Verse 3
|------1--------------------------|--------------------------|
|------1---x---------------5------|-------8p6------------6---|
|------2---x---------------5------|------------7---------7---|
|------3---x-----------5---5------|----------------------8---|
|------------------3---3---3--5/7-|--0-------------------x---|
|--1----------3/5-----------------|--------------6----6--6---|

|---------------------------------|--------------------------|
|-6--6-6-6-6-6-x-10-------------8~|~----------3--------------|
|-7--7-7-7-7-7-x-10-------------9~|~-x--------3--x-----------|
|-7--7-7-7-7-7-x-10--------10--10~|~-x-----5--3--x-----3-3---|
|-5--5-5-5-5-5-x--8--10/12------x~|~-x-5/7----1--x-3/5-----5-|
|-------------------------------8~|~-------------------------|

|------1--------------------------|--------------------------|
|------1---x---------------5------|-------8p6------------6---|
|------2---x---------------5------|------------7---------7---|
|------3---x---------------5------|----------------------8---|
|------------------3-------3--5/7-|--0-------------------x---|
|--1----------3/5-----------------|--------------6----6--6---|




|------------------------------------|-----------------------|
|-6--6-6-6-6-6-x-10--10-10-x-x--8--8-|-8-8-8-8-8-8---8-10-10-|
|-7--7-7-7-7-7-x-10--10-10-x-x--9--9-|-9-9-9-9-9-9---9--9--9-|
|-7--7-7-7-7-7-x-10--10-10-x-x-10-10-|101010101010--10-10-10-|
|-5--5-5-5-5-5-x--8---8--8-x-x--x--x-|-x-x-x-x-x-------------|
|-------------------------------8--8-|-8-8-8-8-8-------------|

Chorus 3
|----------------------------|-------------------------------|
|-10--1010-10--10-10-10-1010-|--8----8-8--8---8--8--8--8--x-x|
|-10--1010-10--10-10-10-1010-|--9----9-9--9---9--9--9--9--x-x|
|-10--1010-10--10-10-10-1010-|-10---1010-10--10-10-10-10--x-x|
|--8---8-8--8---8--8--8--8-8-|-10---1010-10--10-10-10-10--x-x|
|----------------------------|--8----8-8--8---8--8--8--8-----|

|----------------------------|-------------------------------|
|-6------6---6-----6---6-----|-6---------6------6---6---x--x-|
|-7------7---7-----7---7-----|-7---------7------7---7---x--x-|
|-7------7---7-----7---7-----|-8---------8------8---8---x--x-|
|-5------5---5-----5---5-----|-8---------8------8---8---x--x-|
|----------------------------|-6---------6------6---6--------|

|----------------------------|-------------------------------|
|-10--1010-10--10-10-10-1010-|--8----8-8--8---8--8--8--8--x-x|
|-10--1010-10--10-10-10-1010-|--9----9-9--9---9--9--9--9--x-x|
|-10--1010-10--10-10-10-1010-|-10---1010-10--10-10-10-10--x-x|
|--8---8-8--8---8--8--8--8-8-|-10---1010-10--10-10-10-10--x-x|
|----------------------------|--8----8-8--8---8--8--8--8-----|

|-------------------------------|----------------------------|
|-----6-------6-------6-------6-|-5--5-5-x--6-----6---6--6-6-|
|-x---7---x---7---x---7---x---7-|-5--5-5-x--7-----7---7--7-7-|
|-x---7---x---7---x---7---x---7-|-7--7-7-x--8-----8---8--8-8-|
|-x---5---x---5---x---5---x---5-|-7--7-7-x--8-----8---8--8-8-|
|-------------------------------|-5--5-5----6-----6---6--6-6-|

|----------------------------|-------------------------------|
|-10--1010-10--10-10-10-1010-|--8----8-8--8---8--8--8--8--x-x|
|-10--1010-10--10-10-10-1010-|--9----9-9--9---9--9--9--9--x-x|
|-10--1010-10--10-10-10-1010-|-10---1010-10--10-10-10-10--x-x|
|--8---8-8--8---8--8--8--8-8-|-10---1010-10--10-10-10-10--x-x|
|----------------------------|--8----8-8--8---8--8--8--8-----|

|----------------------------|-------------------------------|
|-6------6---6-----6---6-----|-6---------6------6---6---x--x-|
|-7------7---7-----7---7-----|-7---------7------7---7---x--x-|
|-7------7---7-----7---7-----|-8---------8------8---8---x--x-|
|-5------5---5-----5---5-----|-8---------8------8---8---x--x-|
|----------------------------|-6---------6------6---6--------|

|----------------------------|-------------------------------|
|-10--1010-10--10-10-10-1010-|--8----8-8--8---8--8--8--8--x-x|
|-10--1010-10--10-10-10-1010-|--9----9-9--9---9--9--9--9--x-x|
|-10--1010-10--10-10-10-1010-|-10---1010-10--10-10-10-10--x-x|
|--8---8-8--8---8--8--8--8-8-|-10---1010-10--10-10-10-10--x-x|
|----------------------------|--8----8-8--8---8--8--8--8-----|

|-------------------------------|----------------|-1~--------|
|-----6-------6-------6-------6-|-5--5-5-x---6~--|-1~--------|
|-x---7---x---7---x---7---x---7-|-5--5-5-x---7~--|-2~--------|
|-x---7---x---7---x---7---x---7-|-7--7-7-x---8~--|-3~--------|
|-x---5---x---5---x---5---x---5-|-7--7-7-x---8~--|-3~--------|
|-------------------------------|-5--5-5-----6~--|-1~--------|
Tap to rate this tab
# A B C D E F G H I J K L M N O P Q R S T U V W X Y Z